Song name
# A B C D E F G H I J K L M N O P Q R S T U V W X Y Z

Misc Unsigned Bands - Nevershoutnever - Dare4distance tab


 Intro: Strum all of these once.   
E--0--0--0--0--|                             
B--0--0--0--0--|
G--9--8--2--4--|          I'm not gonna tab the strumming patter because it
D--9--9--2--4--|          is not hard so you can do that part
A--7--6--0--2--|
E--------------|

    
 The distacne is daring we both know how to drive ohhhhhh.
E----0--0--0-|
B----0--0--0-|
G----6--4--2-|
D----6--4--2-|
A----4--2--0-|
E------------|


Chorus

E--0---0---0
B--0---0---0
G--1---4---2    Do the strumming
D--2---4---2
A--2---2---0
E-----------

Bridge:

Mondays I lay away.....
E--0--0---0---0
G--0--0---5---0
B--1--4---6---2
D--2--4---6---2
A--2--2---4---0
e--------------


Add my music myspace

myspace.com/bradyandfunstuff
Tap to rate this tab
# A B C D E F G H I J K L M N O P Q R S T U V W X Y Z