Guitaretab - guitar tabs
Song name
# A B C D E F G H I J K L M N O P Q R S T U V W X Y Z

Misc Unsigned Bands - Strike X - Best Day Of My Life tab

-------------------------------------------------------------------------------
                      Best Day of My Life  Strike X
-------------------------------------------------------------------------------
Tabbed by: GuitarMAN2207
Email: sam_axeman@austarnet.com.au

Tuning: Standard (EADGBe)

Intro:
e|---------------------------------------------------------------------------|
B|---------------------------------------------------------------------------|
G|---------------------------------------------------------------------------|
D|------------------------3-3-3-3-3-3-3-3-5----------------------------------|
A|-3--5-6----5-6-----5-6--3-3-3-3-3-3-3-3-5----------------------------------|
E|--------4-------6-------1-1-1-1-1-1-1-1-3----------------------------------|
P.M.                      * * * * * * * *
                          (Slow Release)

Main Riff: x2                                                Second time play this 
of final bar
e|-----------------------------------------------|------------| |---------------|
B|-----------------------------------------------|------------| |---------------|
G|0-------7----8---------7----8---------7----8---|-----------0| |-triplet-------|
D|--10----x-x4-x-x4-6----x-x4-x-x4-8----x-x4-x-x4|-3----5-----| |-3-3-3--5------|
A|0-10-x8-5----6----6-x8-5----6----8-x8-5----6---|-3-x8-5-x8-0| |-3-3-3--5------|
E|--8---------------4--------------6-------------|-1----3-----| |-1-1-1--3------|

Verse 1: x2
e|------------------------------------|
B|------------------------------------|
G|0----------------------------------0|
D|--10-----6-----3-----8-----6-6/10---|
A|0-10-x16-6-x16-3-x16-8-x14-6-6/10--0|
E|--8------4-----1-----6-----4-4/8----|
P.M.*      *     *     *

Chorus: x2                            Second time play this instead of last bar
e|---------------------|------------| |----------|
B|---------------------|------------| |-triplet--|
G|0--------------------|-----------0| |----------|
D|--10-----6-----8-----|-3----5-----| |-3-3-3--5-|
A|0-10-x16-6-x16-8-x16-|-3-x8-5-x8-0| |-3-3-3--5-|
E|--8------4-----6-----|-1----3-----| |-1-1-1--3-|

Main Riff: x2                                                 Second time play this 
of last bar
e|-----------------------------------------------|------------| |---------------|
B|-----------------------------------------------|------------| |---------------|
G|0-------7----8---------7----8---------7----8---|-----------0| |-triplet-------|
D|--10----x-x4-x-x4-6----x-x4-x-x4-8----x-x4-x-x4|-3----5-----| |-3-3-3--5------|
A|0-10-x8-5----6----6-x8-5----6----8-x8-5----6---|-3-x8-5-x8-0| |-3-3-3--5------|
E|--8---------------4--------------6-------------|-1----3-----| |-1-1-1--3------|
[ Tab from: http://www.guitaretab.com/m/misc-unsigned-bands/112481.html ]
Verse 2:
e|---------------------------------------------------------------------------|
B|---------------------------------------------------------------------------|
G|---------------------------------------------------------------------------|
D|---10-----6-----3-----8-----6-6/10-1010-10-1010-10-1010-10-1010-6-66-6-66-6|
A|---10-x16-6-x16-3-x16-8-x14-6-6/10-1010-10-1010-10-1010-10-1010-6-66-6-66-6|
E|---8------4-----1-----6-----4-4/8--8-8--8--8-8--8--8-8--8--8-8--4-44-4-44-4|
P.M. *      *     *     *            * *     * *     * *     * *    **   **

e|---------------------------------------------------------------------------|
B|---------------------------------------------------------------------------|
G|---------------------------------------------------------------------------|
D|-66-6-66-3-33-3-33-3-33-3-33-8-8-8-8-8-8-8-8-8-----------------------------|
A|-66-6-66-3-33-3-33-3-33-3-33-8-8-8-8-8-8-8-8-8-----------------------------|
E|-44-4-44-1-11-1-11-1-11-1-11-6-6-6-6-6-6-6-6-6-----------------------------|
   **   **   **   **   **   ** * * * * * * * *
                               (Slow Release)
Chorus: x2                            Second time play this instead of last bar
e|---------------------|------------| |----------|
B|---------------------|------------| |-triplet--|
G|0--------------------|-----------0| |----------|
D|--10-----6-----8-----|-3----5-----| |-3-3-3--5-|
A|0-10-x16-6-x16-8-x16-|-3-x8-5-x8-0| |-3-3-3--5-|
E|--8------4-----6-----|-1----3-----| |-1-1-1--3-|

Bridge: x6                                     6th time play this instead of last bar
e|-----------------------------|-------------| |----|
B|-----------------------------|-------------| |----|
G|0----------------------------|-----8h10p8-0| |-10-|
D|-------10--------6-------8---|--10---------| |-10-|
A|0---10----10---6---6---8---8-|8-----------0| |-8--|
E|--8----------4-------6-------|-------------| |----|

Pre chorus riff: x1
e|----------------------------------------------------------------------------|
B|----------------------------------------------------------------------------|
G|-17-----19-----20-----------19-----20-------------19-----20-----triplet-----|
D|-x-x8--x-x4--xx4--18-----x--x4--x--x4---20-----x--x4--x--x4--3-3-3---5---|
A|-15-----17-----18----x--x8--17-----18------x--x8--17-----18-----3-3-3---5---|
E|---------------------16--------------------18-------------------1-1-1---3---|

Chorus: x2                            Second time play this instead of last bar
e|---------------------|------------| |------------------|
B|---------------------|------------| |------------------|
G|0--------------------|-----------0| |------------------|
D|--10-----6-----8-----|-3----5-----| |-3-3-3-3--5-5-5-5-|
A|0-10-x16-6-x16-8-x16-|-3-x8-5-x8-0| |-3-3-3-3--5-5-5-5-|
E|--8------4-----6-----|-1----3-----| |-1-1-1-1--3-3-3-3-|

Outro Riff: x2                                               Second time play this 
of final bar
e|-----------------------------------------------|------------| |---------------|
B|-----------------------------------------------|------------| |---------------|
G|0-------7----8---------7----8---------7----8---|-----------0| |-triplet-------|
D|--10----x-x4-x-x4-6----x-x4-x-x4-8----x-x4-x-x4|-3----5-----| |-3-3-3--5------|
A|0-10-x8-5----6----6-x8-5----6----8-x8-5----6---|-3-x8-5-x8-0| |-3-3-3--5------|
E|--8---------------4--------------6-------------|-1----3-----| |-1-1-1--3------|

| /  slide up
| \  slide down
| h  hammer-on
| p  pull-off
| ~  vibrato
| +  harmonic
| x  Mute note
===============================================================================
Related for Strike X - Best Day Of My Life tab