Song name
# A B C D E F G H I J K L M N O P Q R S T U V W X Y Z

Misc Unsigned Bands - The Seven Deadly Sins - All Little Whores Go To Heaven tab

The seven deadly sins

“all little whores go to heaven”

d standard

Intro/post chorus
|----------------------------------------------------------------|
|----------------------------------------------------------------|
|----------------------------------------------------------------|
|-22-2-2-2-2---22-2-2-2-2---22-2-2-2-2---22-2-2-5p2-3p2----------|
|-22223252322-122223252322-322223252322-1222232--------5p2-3p2---|
|-00-0-0-0-0---00-0-0-0-0---00-0-0-0-0---00-0-0---------------b3-|
  xx x x x x   xx x x x x   xx x x x x   xx x x
guitar 2 Intro/post chorus
|----------------------------------------------------------------|
|----------------------------------------------------------------|
|--------------4------------5------------7-----------------------|
|-2------------4------------5------------7-----------------------|
|-2------------2------------3------------5-----------------------|
|-0--------------------------------------------------------------|

Guitar 1 continued
|--------------------------------------------------------------------------|
|--------------------------------------------------------------------------|
|--------------------------------------------------------------------------|
|22-22-22-22-22---22-22-22-22-22---22-22-22-22-22---22-22-225p2-3p2--------|
|222223225223222-1222223225223222-3222223225223222-122222322------5p2-3p2--|
|00-00-00-00-00---00-00-00-00-00---00-00-00-00-00---00-00-00-------------b3|
 xx xx xx xx xx   xx xx xx xx xx   xx xx xx xx xx   xx xx xx
guitar 2 continued
|--------------------------------------------------------------------------|
|--------------------------------------------------------------------------|
|-----------------4----------------5----------------2----------------------|
|-2---------------4----------------5----------------2----------------------|
|-2---------------2----------------3----------------0----------------------|
|-0------------------------------------------------------------------------|

Guitar 1 verse
|-----------------------------------------------------------------------|
|-----------------------------------------------------------------------|
|-----------------------------------------------------------------------|
|--------------------------------------------------------5p2-3p2--------|
|---2--2--2—-2—-2*--3--3--3--3--5--2--2--2—-2—-2*-3--3----------5p2-3p2-|
|-00-00-00-00-00--00-00-00-00-00-00-00-00-00-00-00-00-00----------------|
  xx xx xx xx xx  xx xx xx xx xx xx xx xx xx xx xx xx xx 

guitar 2 verse
|-----------------------------------------------------------------------|
|-----------------------------------------------------------------------|
|-----------------4--------------5--------------7-----------------------|
|-2---------------4--------------5--------------7-----------------------|
|-2---------------2--------------3--------------5-----------------------|
|-0---------------------------------------------------------------------|

Both guitars chorus
|-------------------------------------------------|
|-------------------------------------------------|
|-------4-444-5-555-7-777-------4-444-5-555-2-222-|
|-2-222-4-444-5-555-7-777-2-222-4-444-5-555-2-222-|
|-2-222-2-222-3-333-5-555-2-222-2-222-3-333-0-000-|
|-0-000-------------------0-000-------------------|
    xxx   xxx   xxx   xxx   xxx   xxx   xxx   xxx
both guitars pre solo
|-------x3------------------|---------
|---------------------------|---------
|---------------------------|---------
|-2-22-2-22-2-22-2-22-2-2-2-|-2222222-
|-2-22-2-22-2-22-2-22-2-2-2-|-2222222-
|-0-00-0-00-0-00-0-00-0-0-0-|-0000000-
    xx   xx   xx   xx   x     xxxxxxx
guitar 1 solo
|-/fb11-|-12p10-12p10-----12p10-12p10-----12p10------|
|-------|------------12p10-----------12p10-----12p10-|
|-------|--------------------------------------------|
|-------|--------------------------------------------|
|-------|--------------------------------------------|
|-------|-----------------x2-------------------------|
continued
|-13p10-13p10-----13p10-13p10-----13p10------|
|------------11p10-----------11p10-----11p10-|
|--------------------------------------------|
|--------------------------------------------|
|--------------------------------------------|
|--------------------x2----------------------|
continued
|-/17-|-19p17-19p17-----19p17-19p17-----19p17------|
|-----|------------19p17-----------19p17-----19p17-|
|-----|--------------------------------------------|
|-----|--------------------------------------------|
|-----|--------------------------------------------|
|-----|--------------x2----------------------------|
continued
|-20p17-20p17-----20p17-20p17-----20p17-----|-fb19rfb20/—
|------------18p17-----------18p17----18p17-|-----------
|-------------------------------------------|-----------
|-------------------------------------------|-----------
|-------------------------------------------|-----------
|----------x2-------------------------------|-----------
continued capo the 9th fret with finger
|-L19p17p15-L17p15p14-L15p14p12/15-|
|----------------------------------|
|----------------------------------|
|----------------------------------|
|----------------------------------|
|----------------------------------|
continued capo the 9th fret with finger
|-L15h17p9-(x4)-L15h18p9-(x4)-|-/17fb-|
|-----------------------------|-------|
|-----------------------------|-------|
|-----------------------------|-------|
|-----------------------------|-------|
|----------x2-----------------|-------|

guitar 2 solo rythem
|-------------------------|
|-------------------------|
|-------4-444-5-555-7-777-|
|-2-222-4-444-5-555-7-777-| x4
|-2-222-2-222-3-333-5-555-|
|-0-000-------------------|
guitar 1 outro
|-----------------------------------|
|-----------------------------------|
|-----------------------------------|
|-5p2-3p2-------5p2-3p2--------2222-|
|--------5p2-3p2-------5p2-3p2-2222-|
|------------------------------0000-|
                               xxxx

intro x1
verse x4
chorus x2
post chorus x1
verse x4
chorus x2
pre solo x1
solo x1
chorus x2
post chorus x1
outro x1

“All little whores go to heaven”

oh!

It’s the same old cycle
Repeated again
I love you, I love him
Ill spill my heart where do I begin
Am I just your latest fashion
Forget love and take the passion
To hell with purity
You can jack off peter at the pearly gate

Am I just another guy 
To fill you’re void
Is this just a game you play
Just wait paybacks on the way

Makeup may cover the outside
But you can’t hide what’s inside
You never gave a fuck
About our feelings
You only lied to yourself
When you said you loved me
Sorry Hun theirs more to love
Then what’s in your pants

Am I just another guy 
To fill you’re void
Is this just a game you play
Just wait paybacks on the way

Pre solo 

solo

Am I just another guy 
To fill you’re void
Is this just a game you play
Just wait paybacks on the way


check out our myspace!
Tap to rate this tab
 
# A B C D E F G H I J K L M N O P Q R S T U V W X Y Z