Guitaretab - guitar tabs
Song name
# A B C D E F G H I J K L M N O P Q R S T U V W X Y Z

Misc Unsigned Bands - The Seven Deadly Sins - Boxes Of Foxes tab

The seven deadly sins

“boxes of foxes”

drop c

Guitar 1 Intro tremelo picked
|--------------------------------------------------------------------------|
|--------------------------------------------------------------------------|
|--------------------------------------------------------------------------|
|--------------------------------------------------------------------------|
|-555555555555777755555555555577778888888888887777888888881010101012121212-|
|--------------------------------------------------------------------------|
guitar 2 intro
|--------------------------------------------------------------------------|
|--------------------------------------------------------------------------|
|--------------------------------------------------------------------------|
|-0-----------2---0-----------2---3-----------2---3-------5-------7--------|
|-0-----------2---0-----------2---3-----------2---3-------5-------7--------|
|-0-----------2---0-----------2---3-----------2---3-------5-------7--------|
guitar 1 verse
|-----------------------------------------------------|
|-----------------------------------------------------|
|-----------------------------------------------------|
|-----------------------------------------------------|
|---5h8--7h8--8h10--10h12----12p10—--10p8—--8p7—--7p5-|
|-00---00---00----00-----1010-----/88----/77---/55----|
  xx   xx   xx    xx     x x       xx     xx    xx

guitar 1 chorus
|------------------------------------------|
|------------------------------------------|
|------------------------------------------|
|-----8-7------8-7-------10-8--------12-10-|
|-5-8------7-8------8-10-------10-12-------|
|------------------------------------------|
guitar 2 chorus
|----------------------------------|
|----------------------------------|
|----------------------------------|
|-00000000222222223333333355555555-|
|-00000000222222223333333355555555-|
|-00000000222222223333333355555555-|
both guitars pre verse
|------------------|
|------------------|
|------------------|
|-00-000-00-000----|
|-00-000-00-000----|
|-00-000-00-000-3*-|
  xx xxx xx xxx
[ Tab from: http://www.guitaretab.com/m/misc-unsigned-bands/112504.html ]
guitar 1 interlude clean
|-----------------------|
|-----------------------|
|-----------------------|
|---8---8---10-----12---|
|--5-5-7-7-8--8--10--10-|
|-5---7---8----10-------|

guitar 2 interlude electric
|------------------------|
|------------------------|
|------------------------|
|-----00--00---00-----00-|
|-----00--00---00-----00-|
|-----00--00---00-----00-|
      xx  xx   xx     xx
guitar 1 outro solo
|--------------------------------------|
|--------------------------------------|
|--------------------------------------|
|-12/15~-12/(17)-201817-181715—171514b-| x2
|--------------------------------------|
|--------------------------------------|
continued
|-------------------------------------------------------------|-----
|-------------------------------------------------------------|-----
|-------------------------------------------------------------|-----
|-t20p15h18-(x4)-t19p15h17-(x4)-t20p15h18-(x4)-t20p15h17-(x4)-|-17b-
|-------------------------------------------------------------|-----
|-------------------------------------------------------------|-----

guitar 2 outro solo
|----------------------------------|
|----------------------------------|
|----------------------------------|
|-00000000222222223333333355555555-|
|-00000000222222223333333355555555-|
|-00000000222222223333333355555555-|

intro x2
verse x4
chorus x4
pre verse x1
verse x4
chorus x4
pre verse x1
interlude x4
pre verse x1
verse x4
chorus x4
solo x1
pre verse x1

"Boxes of Foxes"

You say you cannot take it
Your gona fucken break it
These ties these feelings
These wounds still healing
The pain is just to much
Sorrow caught me in its clutch
My head filled with doubt
To take the easy way out

You can cut through 
This fragil line of life and death
And Hurt the ones who love you
My friend you are the greatest coward

life is to short to waist
Cherish the good and leave the bad
Every breath that we take
Is one we will never get back
Every decision we make
Is an outcome we create
Every second passed by
Is one less till we die

You can cut through 
This fragil line of life and death
And Hurt the ones who love you
My friend you are the greatest coward

Live your life
And make no regrets
Live your life
Cherish every step
X2

You can cut through 
This fragil line of life and death
And Hurt the ones who love you
My friend you are the greatest coward

solo
Related for The Seven Deadly Sins - Boxes Of Foxes tab
×
The Seven Deadly Sins - Boxes Of Foxes