Song name
# A B C D E F G H I J K L M N O P Q R S T U V W X Y Z

Misc Unsigned Bands - The Seven Deadly Sins - Good Grays Bad Greens tab

“good grays bad greens”

drop c

Guitar 1 intro
|--------------------------------------|
|--------------------------------------|
|--------------------------------------|
|-----(7)-(8)-(8)75----(7)-(8)-(8)1087-|
|--578---6---7------578---6---7--------|
|-0----------------0-------------------|
  x      x   x     x      x   x

guitar 2 intro
|--------------------------------------|
|--------------------------------------|
|--------------------------------------|
|-0-------------------0-0--------------|
|-0-------------------0-0--------------|
|-0-------------------0-0--------------|
                      x
Guitar 1 intro continued
|------------------------------------------|
|------------------------------------------|
|------------------------------------------|
|-----(7)-(8)-(8)75----(7)-(8)-(8)1087-----|
|--578---6---7------578---6---7-------1087-|
|-0----------------0-----------------------|
  x      x   x     x      x   x

guitar 2 intro continued
|------------------------------------------|
|------------------------------------------|
|-------------------(12)-------------------|
|--------------(12)-----------0-0-0-0-0-0--|
|-----------------------------0-0-0-0-0-0--|
|-----------------------------0-0-0-0-0-0--|
                              x x x x x x

guitar 1 verse pt 1
|--------------------------------------------|
|--------------------------------------------|
|--------------------------------------------|
|----------------7---------------7-8-7-------|
|--5-7-8-7-5-7-8---5-7-8-7--5-7-8-----10-8-7-|
|-0-------0-------0-------0------------------|
  x       x       x       x
guitar 2 pt 1
|--------------------------------------------|
|--------------------------------------------|
|--------------------------------------------|
|-00-2-3-200-2-3-700-2-3-200-2-3-7~----------|
|-00-2-3-200-2-3-700-2-3-200-2-3-7~----------|
|-00-2-3-200-2-3-700-2-3-200-2-3-7~----------|
  xx x x  xx x x  xx x x  xx x x

guitar 1 verse pt 2
|--------------------------------------------------------------------------|
|--------------------------------------------------------------------------|
|--------------------------------------------------------------------------|
|----------7h8------------------7h8-------------------7h8------------------|
|--5h7-7h8-----8p7-7p5—-5h7-7h8-----8p7-8h10--5h7-7h8-----8p7-7p5—-5h7-7h8-|
|00---0---0---0---0---00---0---0---0---0----00---0---0---0---0---00---0---0|
 xx   x   x   x   x   xx   x   x   x   x    xx   x   x   x   x   xx   x   x
continued
|end-1-|---end-2------------|
|------|--------------------|
|------|--------------------|
|-8*---|-10-8-7-------------|
|------|-------10-8-7-8-7-5-|
|------|--------------------|
guitar 2 verse pt 2
|--------------------------------------------------------------------------|
|--------------------------------------------------------------------------|
|--------------------------------------------------------------------------|
|-0-------------------2-------------------3-------------------5------------|
|-0-------------------2-------------------3-------------------5------------|
|-0-------------------2-------------------3-------------------5------------|

guitar 1 CHORUS
|----------------------------------------------|
|----------------------------------------------|
|-77777777999999991010101010101010121212101099-|
|-xxxxxxxxxxxxxxxxx-x-x-x-x-x-x-x-x-x-x-x-x-xx-|
|-55555555777777778-8-8-8-8-8-8-810101088-8-77-|
|----------------------------------------------|
guitar 1 CHORUS  continued
|--------------------------------------------------|
|--------------------------------------------------|
|-777777779999999910101010101010101515151414141212-|
|-xxxxxxxxxxxxxxxxxxxxxxx-x-x-x-x-x-x-x-x-x-x-x-x--|
|-55555555777777778-8-8-8-8-8-8-8-1313131212121010-|
|--------------------------------------------------|

chorus guitar 2
|-------------------------------------------------------------------|
|-------------------------------------------------------------------|
|-------------------------------------------------------------------|
|-00000000222222223333333355533322000000002222222233333333888777555-|
|-00000000222222223333333355533322000000002222222233333333888777555-|
|-00000000222222223333333355533322000000002222222233333333888777555-|
guitar 1 solo
|------x3-------------|-----|---------18-----19-----18-----17-|-/19fb-|
|----10---11---10---9-|-(9)/|-16-15-16--15-16--15-16--15-16---|-------|
|-7-8—-7-8--7-8--7-8—-|-----|---------------------------------|-------|
|---------------------|-----|---------------------------------|-------|
|---------------------|-----|---------------------------------|-------|
|---------------------|-----|---------------------------------|-------|
guitar 2 solo rythem
|-------------------------------------------------------------------|
|-------------------------------------------------------------------|
|-------------------------------------------------------------------|
|-00000000222222223333333355533322000000002222222233333333888777555-|
|-00000000222222223333333355533322000000002222222233333333888777555-|
|-00000000222222223333333355533322000000002222222233333333888777555-|

intro
verse pt 1
verse pt 2
chorus
intro
verse pt 1
verse pt 2
chorus
solo

Please visit our myspace!
Tap to rate this tab
 
# A B C D E F G H I J K L M N O P Q R S T U V W X Y Z