Guitaretab - guitar tabs
Song name
# A B C D E F G H I J K L M N O P Q R S T U V W X Y Z

Misc Unsigned Bands - The Seven Deadly Sins - Its Not Over Till Were Dead tab

The seven deadly sins

ďits not over till we are deadĒ

drop c

Intro guitar 1 clean
|-------------------------------------------------------------------|
|----13--13--13-12----12--12--12-15---15--15--15-12---13--15-13-12--|
|-------------------------------------------------------------------|
|--14--14--14-------14--14--14------14--14--14------14--14----------|
|-0----------------0---------------0---------------0----------------|
|-------------------------------------------------------------------|
intro part 2/ verse guitar 1 clean
|-------------------------------------------------------------|
|----12--12--12-----13--13--13-----15--15--15-----13-----12---|
|-------------------------------------------------------------|
|--14--14--14--14-14--14--14--14-14--14--14--14-14--14-14--14-| x4
|-0--------------0--------------0--------------0------0-------|
|-------------------------------------------------------------|

verse guitar 2 comes in with the singing
|------------------------------------------------------------------|
|------------------------------------------------------------------|
|------------------------------------------------------------------|
|-7777777777777777333333333333333355555555555555553333333355555555-|
|-7777777777777777333333333333333355555555555555553333333355555555-|
|-7777777777777777333333333333333355555555555555553333333355555555-|
pm----------------------------------------------------------------

verse guitar 3 light distorcian with slight echo
|----------------------|-------------------------------------------------|
|---13-12~~~--13-15~~~-|---13121315131213--13121315131213-12h13p12h13p12-|
|----------------------|-----------------14------------------------------|
|-14--------14---------|-14----------------------------------------------| 
|----------------------|-------------------------------------------------|
|----------------------|-------------------------------------------------|

guitar 1 chorus 
|------------------------------------------------------|
|---13-12--13-12-15-13-12-13--13-12--13-12-15-13-12-13-|
|---------------------------14-----14------------------|
|-14-----14--------------------------------------------|
|------------------------------------------------------|
|------------------------------------------------------|

guitar 1 chorus continued
|------------------------------------------------------------|
|---13-12--13-12-15-13-12-13--13-12--13-12-15-13-12-13-12-10-|
|---------------------------14-----14------------------------|
|-14-----14--------------------------------------------------|
|------------------------------------------------------------|
|------------------------------------------------------------|
[ Tab from: http://www.guitaretab.com/m/misc-unsigned-bands/112507.html ]
guitar 2 chorus
|------------------------------------------------------------------|
|------------------------------------------------------------------|
|------------------------------------------------------------------|
|-7777777777777777333333333333333355555555555555553333333355555555-|
|-7777777777777777333333333333333355555555555555553333333355555555-|
|-7777777777777777333333333333333355555555555555553333333355555555-|

guitar 1 verse 2
|------------------------------------------------------------------|
|------------------------------------------------------------------|
|------------------------------------------------------------------|
|-7777777777777777333333333333333355555555555555553333333355555555-|
|-7777777777777777333333333333333355555555555555553333333355555555-|
|-7777777777777777333333333333333355555555555555553333333355555555-|
   xxxxxxxxxxxxxxx xxxxxxxxxxxxxxx xxxxxxxxxxxxxxx xxxxxxx xxxxxxx

guitar 1 outro 
|------------------------------------------------------------------------|
|-t22h15p12-(x8)t18h15p12-(x8)t20h15p12-(x8)t18h15p12-(x4)t20h15p12-(x4)-|
|------------------------------------------------------------------------|
|------------------------------------------------------------------------| 
|------------------------------------------------------------------------|
|------------------------------------------------------------------------|
guitar 2 outro
|------------------------------------------------------------------|---
|------------------------------------------------------------------|---
|------------------------------------------------------------------|---
|-7777777777777777333333333333333355555555555555553333333355555555-|-7-
|-7777777777777777333333333333333355555555555555553333333355555555-|-7-
|-7777777777777777333333333333333355555555555555553333333355555555-|-7-

intro
verse
chorus
intro
verse
chorus 
verse 2
chorus 
outro

"its not over till were dead"

Iím sorry I donít call you anymore
Iím sorry we donít talk and laugh like before
See I fell so hard for you
Iím Bloodied up and bruised
Thatís the trouble with love
It doesnít care how fast you fall
Now Iím sitting here waiting
For you to call

And if you give us a chance again
Iím going to prove to you
That this love is true
X2

It all happened over night
It started with that fight
One day we were us
Then we werenít anymore
Now Iím lying on the floor
Wishing you would call
Wishing you would say
We can just fix this all

And if you give us a chance again
Iím going to prove to you
That this love is true
X2

I lye in my bed every night
Wondering if youíre thinking of me
Could you possibly feel
Even worse then I do right now
I just canít give in and cry
I just donít want to miss you
But hope your missing me
Theirs one less reason to say goodbye

And if you give us a chance again
Iím going to prove to you
That this love is true
X2
You always said
Everything would be ok in the end
X3
you awlays said
these lies you speak are suddenly true!

Related for The Seven Deadly Sins - Its Not Over Till Were Dead tab