Song name
# A B C D E F G H I J K L M N O P Q R S T U V W X Y Z

Misc Unsigned Bands - Ty Lovejoy - Why tab

Artist: Ty Lovejoy
Song: Why? (Instrumental)

Tabbed by: Ty Lovejoy

Listen to the song here:
http://www.youtube.com/watch?v=2afgqCe8N6c

Chords Used:
   
d|-0-2-2-5-0-2-0-0-0-0-|
A|-3-3-2-2-0-0-0-0-0-0-|
F|-2-2-2-2-0-0-1-2-1-2-|
C|-2-0-0-0-0-0-0-0-2-2-|
B|-x-x-x-x-x-x-x-x-2-2-|
D|-x-x-x-x-x-x-x-x-0-0-|


 Intro

d|-----0-------2-|  
A|---3---3---3---|  
F|-2-------2-----| x2
C|---------------|  
B|---------------|  
D|---------------|  

d|-----2-------5-|
A|---2---2---2---|
F|-2-------2-----| x2
C|---------------|
B|---------------|
D|---------------|

d|-----0-------2-|
A|---0---0---0---|
F|-0-------0-----| x2
C|---------------|
B|---------------|
D|---------------|

d|-----0---------0-|
A|---0---0-----0---|
F|-1-------1h2-----|
C|-----------------|
B|-----------------|
D|-----------------|

d|-0---0---0---|
A|-0---0---0---|
F|-1---2---1---|
C|-2---2---2---|
B|-2---2---2---|
D|-0---0---0---|


 Verse/Chorus

d|-0-0-2-2-|
A|-3-3-3-3-|
F|-2-2-2-2-| x2
C|-0-0-0-0-|
B|---------|
D|---------|

d|-2-2-5-5-|
A|-2-2-2-2-|
F|-2-2-2-2-| x2
C|-0-0-0-0-|
B|---------|
D|---------|

d|-0-0-2-2-|
A|-0-0-0-0-|
F|-0-0-0-0-| x2
C|-0-0-0-0-|
B|---------|
D|---------|

d|-0-0-0-0-|
A|-0-0-0-0-|
F|-0-0-0-0-|
C|-1-1h2-2-|
B|---------|
D|---------|

d|-0--|
A|-0--|
F|-2--|
C|-2--|
B|-1--|
D|-0--|

d|--------|
A|--------|
F|--------|
C|-7-9-11-|
B|--------|
D|-5-7-9--|


 Outro

d|-----0-------2-|  
A|---3---3---3---|  
F|-2-------2-----| x2
C|---------------|  
B|---------------|  
D|---------------|  

d|-----2-------5-|
A|---2---2---2---|
F|-2-------2-----| x2
C|---------------|
B|---------------|
D|---------------|

d|-----0-------2-|
A|---0---0---0---|
F|-0-------0-----| x2
C|---------------|
B|---------------|
D|---------------|

d|-----0---------0-|
A|---0---0-----0---|
F|-1-------1h2-----|
C|-----------------|
B|-----------------|
D|-----------------|

d|-0---0---0---|
A|-0---0---0---|
F|-1---2---1---|
C|-2---2---2---|
B|-2---2---2---|
D|-0---0---0---|

__________
Song Order|
----------|
Intro     |
Verse     |
Chorus    | 
Verse     |
Chorus    |
Outro     |
----------
The End!
Tap to rate this tab
# A B C D E F G H I J K L M N O P Q R S T U V W X Y Z