Song name
# A B C D E F G H I J K L M N O P Q R S T U V W X Y Z

Misc Unsigned Bands - Lions - Metal Heavy Lady tab

Song: Metal Heavy Lady
Band: Lions
Tuning: Standard

Verses:
|---------------------------------|
|---------------------------------|
|---------------------------------|
|---------------------------------|
|--0---0-3-0-0-2-0-0-1-0-0-----2--|
|--------------------------4------|

Chorus:                            
|-------------------------------------------------------------------|
|-------------------------------------------------------------1-3^--|
|o-4---4-4-4-4-4-4-4-4-------------4---4-4-4-4-4-4-4-4-0--2-5-------|
|o-2---2-2-2-2-2-2-2-2-0-2-0-2-2-0-2---2-2-2-2-2-2-2-2--------------|
|-------------------------------------------------------------------|
|-------------------------------------------------------------------|

Bridge:
|-----------------------------------|
|-----------------------------------|
|-----------------------------------|
|-----------------------------------|
|--------7-----5-----5-----5---5-7--|
|--0---0---0-0---0-0---0-0---0------|

Song Order:
Verse
Chorus
Verse
Chorus
Bridge
Solo (Not Transcribed)
Verse
Chorus
Tap to rate this tab
# A B C D E F G H I J K L M N O P Q R S T U V W X Y Z