Song name
# A B C D E F G H I J K L M N O P Q R S T U V W X Y Z

Misc Unsigned Bands - Social Approach - Unlikely Contender tab

-------------------------------------------------------------------------------
			     Unlikely Contender- Social Approach
                                 (www.myspace.com/socialapproach)
-------------------------------------------------------------------------------
Tabbed by:Me

Email:Dbodzy@hotmail.com

Tuning: Standard

Guitar 1- verse

e|-------0-----0-|-------3------3-|------0----0-|------3----3-----------------|
B|-----6---6-6---|-----6---6--6---|----6--6-6---|-----6-6--6------------------|
G|---5------5----|---5------5-----|--5-----5----|---5----5--------------------|
D|-0-------------|-3--------------|-------------|-----------------------------|
A|---------------|----------------|-3-----------|-3---------------------------|
E|---------------|----------------|-------------|-----------------------------|

Something like that

 Guitar 2 lead (along those lines)

e|----------------------------------------------------8-----8-10p8------------|
B|-15-15-15-13-13-13-13-13-13-10-10-10-10 p-8-8 8-8h10---8h10-------10-8------|
G|----------------------------------------------------------------------------|
D|----------------------------------------------------------------------------|
A|----------------------------------------------------------------------------|
E|----------------------------------------------------------------------------|

Verse

e|----------------------------------------------------------------------------|
B|----------------------------------------------------------------------------|
G|--14-14-x-14-14-x-14-14-x-14-14-x-------------------------------------------|
D|--12-12-x-12-12-x-15-15-x-15-15-x-14-14-x-15-14-x-14-14-x-14-14-------------|
A|----------------------------------15-15-x-15-15-x-15-15-x-15-15-------------|
E|----------------------------------------------------------------------------|

Chorus

Guitar 1

e|----------3-3-5-5--|---------3-3-5-5----------------------------------------|
B|--3-3-3-3----------|-1-1-1-1------------------------------------------------|
G|-------------------|--------------------------------------------------------|
D|-------------------|--------------------------------------------------------|
A|-------------------|--------------------------------------------------------|
E|-------------------|--------------------------------------------------------|

Guitar2

Chords Dm, C

       Dm       C
e|--5----3--------------------------------------------------------------------|
B|--6----5--------------------------------------------------------------------|
G|--7----5--------------------------------------------------------------------|
D|--7----5--------------------------------------------------------------------|
A|--5----3--------------------------------------------------------------------|
E|----------------------------------------------------------------------------|

Bridge

Guitar 1

e|----------------------------------------------------------------------------|
B|---------1----------3---6---------------------------------------------------|
G|------2----------5------7---------------------------------------------------|
D|----3----------5--------7---------------------------------------------------|
A|--1----------3----------5---------------------------------------------------|
E|----------------------------------------------------------------------------|

Guitar 2

e|-------------------|--------------------------------------------------------|
B|-6p5---------------|--------------------------------------------------------|
G|-----7-5-------5-7-|-7-5----------------------------------------------------|
D|---------7-5-7-----|-----7-5--------7---------------------------------------|
A|-------------------|----------8-5-8-----------------------------------------|
E|-------------------|--------------------------------------------------------|

The song is basically like that i think XD

| /  slide up
| \  slide down
| h  hammer-on
| p  pull-off
| ~  vibrato
| +  harmonic
| x  Mute note
===============================================================================
Tap to rate this tab
# A B C D E F G H I J K L M N O P Q R S T U V W X Y Z