Song name
# A B C D E F G H I J K L M N O P Q R S T U V W X Y Z

Misc Unsigned Bands - Dublinstu - That One Pathetic Song tab

That one "Pathetic" Song (Acoustic)
DublinStu


Standard Tuning

This is the part that Will plays.  I have no clue what the second guitar is playing.


Intro
E|--3---------3----3---|---3----2--2----3-----|
B|--3----3----3----3---|---3----3--3----3-----|
G|--0----2----0----0---|---0----2--4----0-----|
D|--0----2----x----2---|---2----0--4----2-----|
A|--x----0----2----3---|---2-------2----3-----|
E|--3------------------|---0------------------|



Verse 1
E|--3---------3----3---|---3----2--2----3-----|
B|--3----3----3----3---|---3----3--3----3-----|
G|--0----2----0----0---|---0----2--4----0-----|
D|--0----2----x----2---|---2----0--4----2-----|
A|--x----0----2----3---|---2-------2----3-----|
E|--3------------------|---0------------------|

E|--3---------3----3---|---3----3----3~---3---3---|
B|--3----3----3----3---|---3----3----3~---3---3---|
G|--0----2----0----0---|---0----0----0~---0---0---|
D|--0----2----x----2---|---2----2----0~---0---0---|
A|--x----0----2----3---|---2----3----2~---2---x---|
E|--3------------------|---0---------3~---3---2---|


Chorus
E|------------------|
B|------------------|  Two quick strums
G|--99--55-55--77---|  Do twice before lyrics then four with lyrics
D|--99--55-55--77---|
A|--77--33-33--55---|
E|------------------|


Break
E|--3---------3----3---|---3----2-3-2----3-----|
B|--3----3----3----3---|---3----3-3-3----3-----|
G|--0----2----0----0---|---0----2-2-2----0-----|
D|--0----2----x----2---|---2----0-0-0----2-----|
A|--x----0----2----3---|---2-------------3-----|
E|--3------------------|---0-------------------|


Verse 2
E|--3---------3----3---|---3----2-3-2----3-----|
B|--3----3----3----3---|---3----3-3-3----3-----|
G|--0----2----0----0---|---0----2-2-2----0-----| x2
D|--0----2----x----2---|---2----0-0-0----2-----|
A|--x----0----2----3---|---2-------------3-----|
E|--3------------------|---0-------------------|


Chorus
E|------------------|
B|------------------|  Two quick strums
G|--99--55-55--77---|  Do twice before lyrics then four with lyrics
D|--99--55-55--77---|
A|--77--33-33--55---|
E|------------------|


Solo
E|---------------|
B|---------------| 
G|--9---5----7---|  
D|--9---5----7---| <-- some variation of this five times
A|--7---3----5---|
E|---------------|


Bridge
E|-------------3~----2~----|
B|-------------3~----2~----|
G|--9~---5~----0~----3~----|
D|--9~---5~----0~----4~----|
A|--7~---3~----2~----4~----|
E|-------------3~----2~----|

E|--3~----3~----3~----2~----|
B|--3~----3~----3~----3~----|
G|--0~----0~----0~----4~----| x2
D|--2~----2~----0~----4~----|
A|--2~----3~----2~----2~----|
E|--------------3~----------|


Last Chorus thing
E|--------------------2----|---------------3----2----|
B|--------------------3----|---------------3----3----|
G|--9----7--5----4----4----|--9----7--5----0----4----|
D|--9----7--5----5----4----|--9----7--5----0----4----|
A|--7----5--3----5----2----|--7----5--3----2----2----|
E|---------------3---------|---------------3---------|


End on
E|--3~--|
B|--3~--|
G|--0~--|
D|--2~--|
A|--2~--|
E|------|
Tap to rate this tab
# A B C D E F G H I J K L M N O P Q R S T U V W X Y Z