Song name
# A B C D E F G H I J K L M N O P Q R S T U V W X Y Z

Misc Unsigned Bands - Kris Mark - Who Is She tab

-----------------------------
Who Is She (Studio Version)
Kris Mark
-----------------------------

Tabbed by amateurhymer. It's pretty accurate, although There 
are a couple parts missing, but it's hard to tell whether 
it's percussion or another acoustic guitar. But still. 
It's a very nice song.

Any corrections, email amateurhymer@yahoo.com

| /  slide up
| \  slide down
| h  hammer-on
| p  pull-off
| ~  vibrato
| +  harmonic
| x  Mute note

Intro
e|-----------------------------------------------|
B|---7--7/9-------4—4/5-------7--7---------4--4--|
G|---6--6/9-------3—3/4-------6--6---------3--3--|	|x2|
D|-----------------------------------------------|
A|-7-----------------------7-------------4-------|
E|---------------4-------------------------------|


Verse

This lady's got class and style...
e|------------------------|
B|---7--7/9-------4—4/5---|
G|---6--6/8-------3—3/4---|
D|------------------------|
A|-7----------------------|
E|---------------4--------|

The kinda girl that laughs at you...
e|--------------------------|
B|---7--7/9---------4—4-----|
G|---6--6/8--9------3—3-----|
D|--------------------------|
A|-7--------------4---------|
E|--------------------------|

Shorty’s got sex appeal...
e|------------------------|
B|---7--7/9-------4—4/5---|
G|---6--6/8-------3—3/4---|
D|------------------------|
A|-7----------------------|
E|---------------4--------|

Love the way she looks at me...
e|------------------------|
B|-7--------------4-4-----|
G|-6--------------3-3-----|
D|------------------------|
A|---------------4--------|
E|------------------------|

When I tell her she...
e|------------------------|
B|-7--------------4-------|
G|-6--------------3-------|
D|------------------------|
A|------------------------|
E|------------------------|

Chord before Hook starts…
e|----7----|
B|----7----|
G|----6----|
D|---------|
A|---------|
E|---------|


Hook

She’s my first love, first love...
e|-----------------------|
B|---7--7/9-------4—4/5--|
G|---6--6/8-------3—3/4--|	
D|-----------------------|
A|-7---------------------|
E|---------------4-------|

My first love, first love...
e|-----------------------------------|
B|---7-7-7h9p7--------4—4-4h6p4------|
G|---6-6--------8-----3-3-------5----|	
D|-----------------------------------|
A|-7---------------------------------|
E|-------------------4---------------|


2nd verse is similar until...

Her tonight...
e|-----------------------|
B|--5--------7-----------|
G|--4--------6-----------|	
D|-----------------------|
A|-----------------------|
E|-----------------------|

Until sunlight...
e|----------------------------|
B|--5--------7---7h9p7--------|
G|--4--------6---------8------|	
D|----------------------------|
A|----------------------------|
E|----------------------------|


Bridge is the same as a regular verse until Kenni says...

I’m the first half, she’s my sequel...
e|--------------------|
B|--9----7-6-5--------|
G|--8----6-5-4--------|	
D|--------------------|
A|--------------------|
E|--------------------|

She’s my first high, and...
e|--------------------|
B|--5----8-7-6--------|
G|--4----7-6-5--------|	
D|--------------------|
A|--------------------|
E|--------------------|


Followed by hook, then outro...

e|----------------------------------------------------------|
B|---7--7/9------4—4/5------7-7-7h9p7--------4—4-4h6p4------|
G|---6--6/8------3—3/4------6-6--------8-----3-3-------5----|	[x3]
D|----------------------------------------------------------|
A|-7----------------------7----------------4----------------|
E|-------------4--------------------------------------------|

And that's it.


=======================================================================
Tap to rate this tab
# A B C D E F G H I J K L M N O P Q R S T U V W X Y Z