Guitaretab - guitar tabs
Song name
# A B C D E F G H I J K L M N O P Q R S T U V W X Y Z

Misc Unsigned Bands - Jacob Popowski - Frozen Logic tab

e|-5-7-8-7-5-4-5-7-7-8-8-7-7-5-4tr5----5-7-8-7-5-4-5-7-7-8-8-7-7-5-4tr5p3tr4-|
B|---------------------------------------------------------------------------|
G|---------------------------------------------------------------------------|
D|---------------------------------------------------------------------------|
A|---------------------------------------------------------------------------|
E|---------------------------------------------------------------------------|


e|--p2tr3p1tr2---------------------------------------------------------------|
B|---------------------------------------------------------------------------|
G|---------------------------------------------------------------------------|
D|--------------3------------------------------------------------------------|
A|--------------3------------------------------------------------------------|
E|--------------1------------------------------------------------------------|

   em11  am  C  Gm7  Gm7 em11
e|--0----0---0-----1----0----------------------------------------------------|
B|--0----1---1----------0----------------------------------------------------|
G|--0----2---0----------0----------------------------------------------------|
D|--0----2---2--0----0--0----------------------------------------------------|
A|--0----0---3--2----2--0----------------------------------------------------|
E|--0----0---0--3----3--0----------------------------------------------------|

The chords for the verse are am, c, gm7 1, gm7, em11 Each strummed about six times.

                           SOLO
e|------12+--7+---------12+-7+------12+----7+--------------------------------|
B|--7+----------12+--7+--------12+--12+----7+--------------------------------|
G|----------------------------------12+----7+--------------------------------|
D|----------------------------------12+----7+-----------------------12h14h15-|
A|----------------------------------12+----7+--------------12h14h15----------|
E|----------------------------------12+----7+-----12h14h15-------------------|

[ Tab from: http://www.guitaretab.com/m/misc-unsigned-bands/112590.html ]
e|---------------------------------------------------------------------------|
B|----------------------------------------------12h14h15----------12h14h15---|
G|-------------------12h14h15----------12h14h15----------12h14h15------------|
D|----------12h14h15----------12h14h15---------------------------------------|
A|-12h14h15------------------------------------------------------------------|
E|---------------------------------------------------------------------------|


e|-12h14h15/17/15/17/19/17/19/21/19/21/22b-22b-22b-22b-22b-22b-22b-22b-22-19-|
B|---------------------------------------------------------------------------|
G|---------------------------------------------------------------------------|
D|---------------------------------------------------------------------------|
A|---------------------------------------------------------------------------|
E|---------------------------------------------------------------------------|

e|-22-19----19---------------------------------------------------------------|
B|-------21---21----21-------------------------------------------------------|
G|---------------22----22-19-22-19----19-------------------------------------|
D|---------------------------------21----21-18-21-18----18-------------------|
A|---------------------------------------------------20----20-17-20-17-------|
E|---------------------------------------------------------------------19~---|


e|---------------------------------------------------------------------------|
B|---------------------------------------------------------------------------|
G|---------------------------------------------------------------------------|
D|-2---------------------5-------------------3----------------18----18-21-18-|
A|-2----20-17-20-17------5---20-17-20-17-----3----17-20-17-20----20----------|
E|-0----------------19~--3---------------19~-1-19----------------------------|


e|-------------------------------19-------19--22-19-22~-----19-22-19-22~-----|
B|----------------------21----21-----21--------------------------------------|
G|----19---19-22-19-22-----22------------------------------------------------|
D|-21---21-----------------------------------------------2----------------5--|
A|-------------------------------------------------------2----------------5--|
E|-------------------------------------------------------0----------------3--|


e|--19-22-19-22-17-20-17-20-15-18-15-18----15-18-15-18-----------------------|
B|---------------------------------------------------------------------------|
G|---------------------------------------------------------------------------|
D|--------------------------------------2--------------5-4-3-2-0-------------|
A|--------------------------------------2--------------5-4-3-2-0-------------|
E|--------------------------------------0--------------3-2-1-0-0--0----------|
Related for Jacob Popowski - Frozen Logic tab
Advertisement will be closed in 10 seconds