Song name
# A B C D E F G H I J K L M N O P Q R S T U V W X Y Z

Misc Unsigned Bands - Sam Baldwin - Extra tab

		 _____________________
		|Extra by sam baldwin |
		|		      |
		|_____________________|
Intro:
Guitar 1:
E-----------------|-----------------|-----------------|-----------------|
B-----------------|-----------------|-----------------|-----------------|
G----4------4-----|-----------------|-----------------|-----------------|
D-----------------|-----4-----5-4---|--5-7--5-5--7----|-----------------|
A--2---2-2--------|-----------------|--5-5--5-5--5----|--------------87-|
E-----------------|--2----2-2-------|-----------------|-5-5-5-555555----|

Guitar 2:
E-----------------|-----------------|-----------------|-----------------|
B-0-0-0-0-2-0-2-0-|-2-2-2-2-3-2-3-2-|-3-3-3-3-5-3-5-3-|-2-2-2-2-3-2-3-2-|
G-----------------|-----------------|-----------------|-----------------|
D-----------------|-----------------|-----------------|-----------------|
A-----------------|-----------------|-----------------|-----------------|
E-----------------|-----------------|-----------------|-----------------|

.........................................................................

Verse:
E-----------------|-----------------|-----------------|-----------------|
B-----------------|-----------------|-----------------|-----------------|
G-4-4-4-4---------|-----------------|-7-7-7-7---------|-----------------|
D-4-4-4-4---------|-4-4-4-4---------|-7-7-7-7---------|-7-7-7-7---------|
A-2-2-2-2-5-2-5-2-|-4-4-4-4---------|-5-5-5-5-9-5-9-5-|-7-7-7-7---------|
E-----------------|-2-2-2-2-5-2-5-2-|-----------------|-5-5-5-5-9-5-9-5-|

.........................................................................

Chorus:
E-----------------|-----------------|-----------------|-----------------|
B-----------------|-----------------|-----------------|-----------------|
G-4-4-4-----------|-----------------|-7-7-7-----------|-----------------|
D-4-4-4-----------|-4-4-4-----------|-7-7-7-----------|-7-7-7-----------|
A-2-2-2-----------|-4-4-4-----------|-5-5-5-----------|-7-7-7-----------|
E-----------------|-2-2-2-----------|-----------------|-5-5-5-----------|

.........................................................................

Solo:
First This:
E-----------------|-----------------|-----------------|-----------------|
B-----------------|-----------------|-----------------|-----------------|
G----4------4-----|-----------------|-----------------|-----------------|
D-----------------|-----4-----5-4---|--5-7--5-5--7----|-----------------|
A--2---2-2--------|-----------------|--5-5--5-5--5----|--------------87-|
E-----------------|--2----2-2-------|-----------------|-5-5-5-555555----|

Then This:
E-----------------|-----------------|-----------------|-----------------|
B-0-0-0-0-2-0-2-0-|-2-2-2-2-3-2-3-2-|-3-3-3-3-5-3-5-3-|-2-2-2-2-3-2-3-2-|
G-----------------|-----------------|-----------------|-----------------|
D-----------------|-----------------|-----------------|-----------------|
A-----------------|-----------------|-----------------|-----------------|
E-----------------|-----------------|-----------------|-----------------|

And This:
E-----------------|-----------------|-----------------|-----------------|
B-0-2-0-3-2-0-----|-2-3-2-5-3-2-----|-3-5-3-7-5-3-----|-2-3-2-5-3-2-----|
G-----------------|-----------------|-----------------|-----------------|
D-----------------|-----------------|-----------------|-----------------|
A-----------------|-----------------|-----------------|-----------------|
E-----------------|-----------------|-----------------|-----------------|

This:
E-------------------|-------------------|-------------------|-------------------|
B-12-14-12-15-14-12-|-14-15-14-17-15-14-|-15-17-15-19-17-15-|-14-15-14-17-15-14-|
G-------------------|-------------------|-------------------|-------------------|
D-------------------|-------------------|-------------------|-------------------|
A-------------------|-------------------|-------------------|-------------------|
E-------------------|-------------------|-------------------|-------------------|

And Finally:
E-------------------|-------------------------------------|
B-------------------|-------------------------------------|
G-9-7-----------7-7-|-9-7-----------------7-------------7-|
D-----9-7-7-9-9-----|-----9-7-7h9p7h9p7h9---7h9p7h9p7h9---|
A-------------------|-------------------------------------|
E-------------------|-------------------------------------|

E---------------------|---------------------|
B---------------------|---------------------|
G-9-7---------------4-|-9-7-----------------|
D-----9-7-7/5---5-7---|-----9-7-------------|
A-------------7-------|---------9-7---7-9---|
E---------------------|-------------8-----8-|

.........................................................................

2nd Chorus:
1st Guitar:
E-----------------|-----------------|-----------------|-----------------|
B-----------------|-----------------|-----------------|-----------------|
G-4-4-4-----------|-----------------|-7-7-7-----------|-----------------|
D-4-4-4-----------|-4-4-4-----------|-7-7-7-----------|-7-7-7-----------|
A-2-2-2-----------|-4-4-4-----------|-5-5-5-----------|-7-7-7-----------|
E-----------------|-2-2-2-----------|-----------------|-5-5-5-----------|

2nd Guitar:
E-----------------|-----------------|-----------------|-----------------|
B-------0-2-0-2-0-|-------2-3-2-3-2-|-------3-5-3-5-3-|-------2-3-2-3-2-|
G-----------------|-----------------|-----------------|-----------------|
D-----------------|-----------------|-----------------|-----------------|
A-----------------|-----------------|-----------------|-----------------|
E-----------------|-----------------|-----------------|-----------------|

.........................................................................

Outro:
E-----------------|-----------------|-----------------|-----------------|
B-----------------|-----------------|-----------------|-----------------|
G----4------4-----|-----------------|-----------------|-----------------|
D-----------------|-----4-----5-4---|--5-7--5-5--7----|-----------------|
A--2---2-2--------|-----------------|--5-5--5-5--5----|--------------87-|
E-----------------|--2----2-2-------|-----------------|-5-5-5-555555----|
With 2nd guitar playing basic chords underneath.
End on B with a slide up to octave B.


Lyrics:

(intro)

Verse 1:
No matter what you say
You cannot change my mind
You've still got your pretty looks
But you're just awalking blind

(Intro riff)

Verse 2:
Some do what they're told
But others stick it bold
You fall into the mould
And you've come out cold

Chorus:
Don't try too hard
Ya just an extra 
on the side of the field

Don't try too hard
The extra's never get 
picked for this game

(Solo)

Chorus (with gtr 2 intro riff underneath):
Don't try too hard
Ya just an extra 
on the side of the field

Don't try too hard
The extra's never get 
picked for this game

(outro)

-------(end with slide up to B octave)---------






Tap to rate this tab
# A B C D E F G H I J K L M N O P Q R S T U V W X Y Z