Song name
# A B C D E F G H I J K L M N O P Q R S T U V W X Y Z

Misc Unsigned Bands - Kurtarist - Flipside tab

Hey this is my first tab and me and my brother wrote this together.

)Let Ring
* Palm Mute

Flipside
(Intro)
---------------------------------------------------------------------|
---------------------------------------------------------------------|
---------------------------------------------------------------------|
---------------------------------------------------------------------|
---------------------------------------------------------------------|
-7-9)--3-5)--5-7)--7-9)--3-5)--5-7)----------------------------------|

(Riff)
---------------------------------------------------------------------------|
---------------------------------------------------------------------------|
---------------------------------------------------------------------------|
----------------77--------------77--------------77--------------77---------|
-7-77-7-7--55----7-77-7-7--55----7-77-7-7--55----7-77-7-7--55--------------|
-5-55-5-5--------5-55-5-5--------5-55-5-5--------5-55-5-5------------------|
The riff is the verse but its all music throught it the chorus picks up lyrics.

(Chorus)
---------------------------------------------------------------------|
----------------------------------------------------------------X2---|
-------------------------------555555555555--------------------------|
-777777777777---555555555555---555555555555---555555555555---7-------|
-777777777777---555555555555---333333333333---555555555555---7-------|
-555555555555---333333333333------------------333333333333---5-------|
 ************   ************   ************   ************
Palm through first time then play the final time.

(Intro)
---------------------------------------------------------------------|
---------------------------------------------------------------------|
---------------------------------------------------------------------|
---------------------------------------------------------------------|
---------------------------------------------------------------------|
-7-9)--3-5)--5-7)--7-9)--3-5)--5-7)----------------------------------|

(Riff)
---------------------------------------------------------------------|
---------------------------------------------------------------------|
---------------------------------------------------------------------|
-----------77--------------77--------------77--------------77--------|
-7-77-7-7--55----7-77-7-7--55----7-77-7-7--55----7-77-7-7--55--------|
-5-55-5-5--------5-55-5-5--------5-55-5-5--------5-55-5-5------------|

(Chorus)
---------------------------------------------------------------------|
-----------------------------------------------------------------X2--|
-------------------------------555555555555--------------------------|
-777777777777---555555555555---555555555555---555555555555---7-------|
-777777777777---555555555555---333333333333---555555555555---7-------|
-555555555555---333333333333------------------333333333333---5-------|
 ************   ************   ************   ************
Palm through first time, then play final time.

(Pre-Chorus)
---------------------------------------------------------------------|
---------------------------------------------------------------------|
---------------------------------------------------------------------|
---------333---------------------------------------------------------|
-77--55--333--7------------------------------------------------------|
-55--33--333--7------------------------------------------------------|

(Chorus)
---------------------------------------------------------------------|
------------------------------------------------------------------X2-|
-------------------------------555555555555--------------------------|
-777777777777---555555555555---555555555555---555555555555---7-------|
-777777777777---555555555555---333333333333---555555555555---7-------|
-555555555555---333333333333------------------333333333333---5-------|
 ************   ************   ************   ************


(Ending)
---------------------------------------------------------------------|
---------------------------------------------------------------------|
---------------------------------------------------------------------|
-333--555--777--3----------------------------------------------------|
-333--555--777--3----------------------------------------------------|
-333--555--777--3----------------------------------------------------|
Tap to rate this tab
# A B C D E F G H I J K L M N O P Q R S T U V W X Y Z