Song name
# A B C D E F G H I J K L M N O P Q R S T U V W X Y Z

Misc Unsigned Bands - Dead Memories - My Last Breath tab

INTRO
e|-----------------------------------------------------------------|
B|-----------------------------------------------------------------|
G|-----------------------------------------------------------------|
D|-----------------------------------------------------------------|
A|-2-------4------7------9-----------------------------------------|
E|-0--X16--2-X16--5-X16--7-X16---repeat 3 times--------------------|
pre verse
e|-----------------------------------------------------------------|
B|-----------------------------------------------------------------|
G|-----------------------------------------------------------------|
D|-------4-5---------4-7-------------------------------------------|
A|-99--4-2-3----99-4-2-5-------------------------------------------|
E|-77--2--------77-2----------X2-----------------------------------|
Tap to rate this tab
 
# A B C D E F G H I J K L M N O P Q R S T U V W X Y Z