Song name
# A B C D E F G H I J K L M N O P Q R S T U V W X Y Z

Misc Unsigned Bands - Kurtarist - Lose The Girl tab

This Is A Song I Wrote Just To Have Fun With And I Ended Up Liking It A Whole Lot Hope 
Enjoy It As Well.
* Palm Mute

Lose The Girl
(Intro/Riff)
------------------------------------------------------------------|
------------------------------------------------------------------|
------------------------------------------------------------------|
-555--777--333--5--555--777--333--5-------------------------------|
-555--777--333--5--555--777--333--5-------------------------------|
-555--777--333--5--555--777--333--5-------------------------------|

(Pre-Verse)
------------------------------------------------------------------|
------------------------------------------------------------------|
------------------------------------------------------------------|
------------------------------------------------------------------|
-9-9-9-9-9-9-9-9-9-9-9-9------------------------------------------|
-7-7-7-7-7-7-7-7-7-7-7-7------------------------------------------|
Put Reverb In On This Part

(Verse)
------------------------------------------------------------------|
------------------------------------------------------------------|
------------------------------------------------------------------|
------------------------------------------------------------------|
-999999999-555555555-777777777-999999999-555555555-777777777------|
-777777777-333333333-555555555-777777777-333333333-555555555------|
 ********* ********* ********* ********* ********* *********

(Chorus)
------------------------------------------------------------------|
------------------------------------------------------------------|
-------------------------------------------------X2---------------|
-555555555555--777777777777--333333333333-------------------------|
-555555555555--777777777777--333333333333-------------------------|
-555555555555--777777777777--333333333333-------------------------|

(Intro/Riff)
------------------------------------------------------------------|
------------------------------------------------------------------|
------------------------------------------------------------------|
-555--777--333--5--555--777--333--5-------------------------------|
-555--777--333--5--555--777--333--5-------------------------------|
-555--777--333--5--555--777--333--5-------------------------------|

(Pre-Verse)
------------------------------------------------------------------|
------------------------------------------------------------------|
------------------------------------------------------------------|
------------------------------------------------------------------|
-9-9-9-9-9-9-9-9-9-9-9-9------------------------------------------|
-7-7-7-7-7-7-7-7-7-7-7-7------------------------------------------|
Put Reverb In On This Part

(Verse)
------------------------------------------------------------------|
------------------------------------------------------------------|
------------------------------------------------------------------|
------------------------------------------------------------------|
-999999999-555555555-777777777-999999999-555555555-777777777------|
-777777777-333333333-555555555-777777777-333333333-555555555------|
 ********* ********* ********* ********* ********* *********

(Chorus)
------------------------------------------------------------------|
------------------------------------------------------------------|
-------------------------------------------------X2---------------|
-555555555555--777777777777--333333333333-------------------------|
-555555555555--777777777777--333333333333-------------------------|
-555555555555--777777777777--333333333333-------------------------|

(Intro/Riff)
------------------------------------------------------------------|
------------------------------------------------------------------|
------------------------------------------------------------------|
-555--777--333--5--555--777--333--5-------------------------------|
-555--777--333--5--555--777--333--5-------------------------------|
-555--777--333--5--555--777--333--5-------------------------------|

(Chorus)
------------------------------------------------------------------|
------------------------------------------------------------------|
-------------------------------------------------X2---------------|
-555555555555--777777777777--333333333333-------------------------|
-555555555555--777777777777--333333333333-------------------------|
-555555555555--777777777777--333333333333-------------------------|
Tap to rate this tab
# A B C D E F G H I J K L M N O P Q R S T U V W X Y Z