Song name
# A B C D E F G H I J K L M N O P Q R S T U V W X Y Z

Misc Unsigned Bands - Kurtarist - Broken tab

This is a slower style song but it can be played fast and sound good as well. the
struming is easy you should be able to figure it out.

Broken
(Intro)
Is All Drums To Start.

(Verse)
-0-0-0-0000-----0-0-0-0000-----0-0-0-0000-----0-0-0-0000---------------|
-0-0-0-0000-----0-0-0-0000-----0-0-0-0000-----0-0-0-0000---------------|
-5-5-5-5555-X2--0-0-0-0000-----0-0-0-0000-----7-7-7-7777-X2------------|
-5-5-5-5555-----5-5-5-5555-X2--7-7-7-7777-X2--7-7-7-7777---------------|
-3-3-3-3333-----5-5-5-5555-----7-7-7-7777-----5-5-5-5555---------------|
----------------3-3-3-3333-----5-5-5-5555------------------------------|

(Verse)
-0-0-0-0000-----0-0-0-0000-----0---------------------------------------|
-0-0-0-0000-----0-0-0-0000-----0---------------------------------------|
-0-0-0-0000-----0-0-0-0000-----5---------------------------------------|
-7-7-7-7777-X2--5-5-5-5555-X2--5---------------------------------------|
-7-7-7-7777-----5-5-5-5555-----3---------------------------------------|
-5-5-5-5555-----3-3-3-3333---------------------------------------------|

(Chorus)
-0000000--0000000--0000000--0000000--0000000--0000000--0000000---------|
-0000000--0000000--0000000--0000000--0000000--0000000--0000000---------|
-5555555--0000000--0000000--7777777--0000000--0000000--5555555---------|
-5555555--5555555--7777777--7777777--7777777--5555555--5555555---------|
-3333333--5555555--7777777--5555555--7777777--5555555--3333333---------|
----------3333333--5555555-----------5555555--3333333------------------|

(Before Verse)
Drums Only Again Into Verse

(Verse)
-0-0-0-0000-----0-0-0-0000-----0-0-0-0000-----0-0-0-0000---------------|
-0-0-0-0000-----0-0-0-0000-----0-0-0-0000-----0-0-0-0000---------------|
-5-5-5-5555-X2--0-0-0-0000-----0-0-0-0000-----7-7-7-7777-X2------------|
-5-5-5-5555-----5-5-5-5555-X2--7-7-7-7777-X2--7-7-7-7777---------------|
-3-3-3-3333-----5-5-5-5555-----7-7-7-7777-----5-5-5-5555---------------|
----------------3-3-3-3333-----5-5-5-5555------------------------------|

(Verse)
-0-0-0-0000-----0-0-0-0000-----0---------------------------------------|
-0-0-0-0000-----0-0-0-0000-----0---------------------------------------|
-0-0-0-0000-----0-0-0-0000-----5---------------------------------------|
-7-7-7-7777-X2--5-5-5-5555-X2--5---------------------------------------|
-7-7-7-7777-----5-5-5-5555-----3---------------------------------------|
-5-5-5-5555-----3-3-3-3333---------------------------------------------|

(Chorus)
-0000000--0000000--0000000--0000000--0000000--0000000--0000000---------|
-0000000--0000000--0000000--0000000--0000000--0000000--0000000---------|
-5555555--0000000--0000000--7777777--0000000--0000000--5555555---------|
-5555555--5555555--7777777--7777777--7777777--5555555--5555555---------|
-3333333--5555555--7777777--5555555--7777777--5555555--3333333---------|
----------3333333--5555555-----------5555555--3333333------------------|

(Before Verse)
Drums Only Again Into Verse

(Verse)
-0-0-0-0000-----0-0-0-0000-----0-0-0-0000-----0-0-0-0000---------------|
-0-0-0-0000-----0-0-0-0000-----0-0-0-0000-----0-0-0-0000---------------|
-5-5-5-5555-X2--0-0-0-0000-----0-0-0-0000-----7-7-7-7777-X2------------|
-5-5-5-5555-----5-5-5-5555-X2--7-7-7-7777-X2--7-7-7-7777---------------|
-3-3-3-3333-----5-5-5-5555-----7-7-7-7777-----5-5-5-5555---------------|
----------------3-3-3-3333-----5-5-5-5555------------------------------|

(Verse)
-0-0-0-0000-----0-0-0-0000-----0---------------------------------------|
-0-0-0-0000-----0-0-0-0000-----0---------------------------------------|
-0-0-0-0000-----0-0-0-0000-----5---------------------------------------|
-7-7-7-7777-X2--5-5-5-5555-X2--5---------------------------------------|
-7-7-7-7777-----5-5-5-5555-----3---------------------------------------|
-5-5-5-5555-----3-3-3-3333---------------------------------------------|

(Chorus)
-0000000--0000000--0000000--0000000--0000000--0000000--0000000---------|
-0000000--0000000--0000000--0000000--0000000--0000000--0000000---------|
-5555555--0000000--0000000--7777777--0000000--0000000--5555555---------|
-5555555--5555555--7777777--7777777--7777777--5555555--5555555---------|
-3333333--5555555--7777777--5555555--7777777--5555555--3333333---------|
----------3333333--5555555-----------5555555--3333333------------------|
Tap to rate this tab
 
# A B C D E F G H I J K L M N O P Q R S T U V W X Y Z