Song name
# A B C D E F G H I J K L M N O P Q R S T U V W X Y Z

Misc Unsigned Bands - Into Another - Regarding Earthlings tab

Ok, so this is my first tab and i would appreciate any feedback.  I don't think
it's 100% correct, but it's close.  Anyone else with Into Another tabs, please submit them.

Part 1

----------------------------------------|
----------------------------------------|
--------------------5------3--5--2------|   repeat
-5------3--5--2--3--5------3--5--2--3---|
-5------3--5--2--3--3------1--3--0--3---|
-3------1--3--0--1------------------1---|

Part 2

------------------------------------------------|
------------------------------------------------|
------------------------------------------------|
-------5--------3--------3--------8---------10--|
----5--------3--------3--------8--------10------|
-3--------1--------1--------6--------8----------|


----------------------------|
----------------------------|
----------------------------|
-------8--------8--------3--|  repeat
----8--------8--------3-----|
-6--------6--------1--------|

part 3


-------------------------------------------------|
-------------------------------------------------|
-------5-----------3-----------2-----------------|
----------5-----------3-----------2--------3-----|
-3--3--------1--1--------0--0-----------------3--|
-------------------------------------1--1--------|


-------------------------------------------------|
-------------------------------------------------|
-------------------------------2-----------3-----|
-------3-----------5--------------2-----------3--|    repeat
----------3-----------5--0--0--------1--1--------|
-1--1--------3--3--------------------------------|


that's pretty much it!

www.myspace.com/therealintoanother
Tap to rate this tab
 
# A B C D E F G H I J K L M N O P Q R S T U V W X Y Z