Song name
# A B C D E F G H I J K L M N O P Q R S T U V W X Y Z

Misc Unsigned Bands - Shotgun Elvis - We Are Nwi tab

First guitar part
e-------------------------------|
B-------------------------------|
G-------------------------------|
D-777---------------------------|
A-555-xx-777-*------------------|
E-----xx-555--------------------| x3

*third time play
e-------------------------------|
B-------------------------------|
G-------------------------------|
D-777-----------999-xx-999**----|
A-555-xx-77-xxx-777-xx-777------|
E-----xx-55-xxx-----------------|
				**let ring
Bridge riff
e----------------------------------|
B----------------------------------|
G----------------------------------|
D-777-------555--------777---------|
A-555-xx-77-333-xx-55--555-xx-77---|
E--------55--------33---------55---|


The chorus is same as the first guitar part only a bit
faster, just listen to the song and you'll get it.

solo (with tons of distortion)
e---3b--------------------------|
B-2-----------------------------|
G-------------------------------|
D-------------------------------|
A-------------------------------|
E-------------------------------|

Any questions email me bkowalski27@gmail.com
Tap to rate this tab
# A B C D E F G H I J K L M N O P Q R S T U V W X Y Z