Song name
# A B C D E F G H I J K L M N O P Q R S T U V W X Y Z

Misc Unsigned Bands - Ryan Marshall Band - Dispute tab

E------------------------------------------------------------------------------------------------|
B-----------------------------------------------------------------------------------------(x3)---|
G------------------------------------------------------------------------------------------------|
D------------------13-------------------13-------------------13----------------------------------|
A----13-12----13-12-------13-12----13-12------13-12-----13-12-------13-12-----13-12---222--------|
E-00-------00----------00-------00---------00--------00----------00--------00---------000--------|


E--------------------------------|
G--------------------------(x12)-|
B--------------------------------|
D--------------------------------|
A--------66-----2h3p2-2----------|
E----00--33--00-------0----------|

E----------------------------|
G----------------------(x4)--|
B----------------------------|
D----------------------------|
A--2--2--3--2--3--2--2-------|
E--0--2--3--0--3--2--0-------|
Tap to rate this tab
 
# A B C D E F G H I J K L M N O P Q R S T U V W X Y Z