Song name
# A B C D E F G H I J K L M N O P Q R S T U V W X Y Z

Misc Unsigned Bands - Another Day Down - Good Morning tab

This is off Another Day Down's new EP album I Watch A World.
When you strum the c9 chord let it ring and at the same time play the other notes.

Tuning: Half a step down

e|--0---------0---------0------------------------------------|
B|--3--3-5-3--3--3-5-3--3--3-5--8-8\7--7\5--5\3--3\0---------|
G|--0---------0---------0------------------------------------|
D|--2---------2---------2------------------------------------|
A|--3---------3---------3------------------------------------|
E|--x---------x---------x------------------------------------|

These are the chords for the verses. They last for 8 counts each.

e|--0-----3--------------------------------------------------|
B|--3-----3--------------------------------------------------|
G|--0-----0--------------------------------------------------|
D|--2-----2--------------------------------------------------|
A|--3-----2--------------------------------------------------|
E|--x-----0--------------------------------------------------|

Thats all i have figured out so far.
Please comment.
Tap to rate this tab
# A B C D E F G H I J K L M N O P Q R S T U V W X Y Z