Song name
# A B C D E F G H I J K L M N O P Q R S T U V W X Y Z

Misc Unsigned Bands - Sarah Coloso - How Do You Live tab

Tabbed by Jamie Harris
Tuning - Standard

This is a really good acoustic song, to hear it you can go to
www.myspace.com/sarahcoloso

----------------------------------|
----------5--5-5-----------5--5-5-|
-6--6--6--6--6-6--6--6--6--6--6-6-|
-6--6--6--6--6-6--6--6--6--6--6-6-|
-4--4--4--4--4-4--4--4--4--4--4-4-|
----------------------------------|

---------------------------------|
----------2--2-2--0--0-0--0--0-0-|
-2--2--2--2--2-2--2--2-2--2--2-2-|
-2--2--2--2--2-2--2--2-2--2--2-2-|
-0--0--0--0--0-0--0--0-0--0--0-0-|
---------------------------------|

-0--0--0--0--0-0--0--0--0--0--0-0-|
-0--0--0--0--0-0--0--0--0--0--0-0-|
-1--1--1--1--1-1--1--1--1--1--1-1-|
-2--2--2--2--2-2--2--2--2--2--2-2-|
-2--2--2--2--2-2--2--2--2--2--2-2-|
-0--0--0--0--0-0--0--0--0--0--0-0-|

---------------------------------|
-4--4--4--5--5-5--4--4-4--4--4-4-|
-4--4--4--4--4-4--4--4-4--4--4-4-|
-4--4--4--4--4-4--4--4-4--4--4-4-|
-2--2--2--2--2-2--2--2-2--2--2-2-|
---------------------------------| double the last bit at the outro
                                  and end on E chord
Tap to rate this tab
 
# A B C D E F G H I J K L M N O P Q R S T U V W X Y Z