Song name
# A B C D E F G H I J K L M N O P Q R S T U V W X Y Z

Misc Unsigned Bands - Brokencyde - Blue Steel tab

--------1-------1-------1-------------|
------1-------1-------1---1-----------|
----1-------1-------1-------1---------|
--3-------3-------3-----------3-------|
--------------------------------------|
--------------------------------------|


--------0-------0-------0--1--0-------|
------1-------1-------1---------------|
----0-------0-------0------------0----|
--2-------2-------2----------------2--|
--------------------------------------|
--------------------------------------|

Just play through the whole song
Tap to rate this tab
 
# A B C D E F G H I J K L M N O P Q R S T U V W X Y Z