Guitaretab - guitar tabs
Song name
# A B C D E F G H I J K L M N O P Q R S T U V W X Y Z

Misc Unsigned Bands - Dj Khaled - Im So Hood tab

-------------------------------------------------------------------------------
	                     I'm So Hood - DJ Khaled
-------------------------------------------------------------------------------
Tabbed by:Sound Mind
Email:kagenecros@hotmail.com

Band: DJ Khaled ft. T-Pain, Trick Daddy, Rick Ross, & Plies
Song: I'm So Hood
Album: We The Best
Year: 2007

Tuning:Standard


Intro Chorus/Verses:

  Q.    E E E E E H.          E E  H.         E E  H      E E E E 
e|---------------|----------------|---------------|---------------|
B|---------------|----------------|---------------|---------------|
G|------------6--|------------7-5-|4------------4-|---------4-5-7-|
D|7-------5-7---5|----------------|-----------7---|5------7-------|
A|------7--------|7---------------|---------------|---------------|
E|---------------|----------------|---------------|---------------|


Other Choruses:

  Q.    E E E E E H.          E E  H.         E E  H      E E E E 
e|---------------|----------------|---------------|---------------|
B|---------------|----------------|---------------|---------------|
G|------------6--|------------7-5-|4------------4-|---------4-5-7-|
D|7-------5-7---5|----------------|-----------7---|5------7-------|
A|------7--------|7---------------|---------------|---------------|
E|---------------|----------------|---------------|---------------|
 |
 |(Q.)  E  Q    Q     (Q.)  E  Q    Q     (Q.)  E  Q    Q     Q    Q    Q    Q
e|---------19---20---|---------19---20---|---------19---20---|22---20---19--------|
B|------22-----------|------22-----------|------22-----------|---------------20---|
G|-------------------|-------------------|-------------------|--------------------|
D|-------------------|-------------------|-------------------|--------------------|
A|-------------------|-------------------|-------------------|--------------------|
E|-------------------|-------------------|-------------------|--------------------|
[ Tab from: http://www.guitaretab.com/m/misc-unsigned-bands/112859.html ]
-------------------------------------------------------------------------------
	                     I'm So Hood - DJ Khaled
-------------------------------------------------------------------------------
Tabbed by:Sound Mind
Email:kagenecros@hotmail.com

Band: DJ Khaled ft. T-Pain, Trick Daddy, Rick Ross, & Plies
Song: I'm So Hood
Album: We The Best
Year: 2007

Tuning:Standard


Intro Chorus/Verses:

  Q.    E E E E E H.          E E  H.         E E  H      E E E E 
e|---------------|----------------|---------------|---------------|
B|---------------|----------------|---------------|---------------|
G|------------6--|------------7-5-|4------------4-|---------4-5-7-|
D|7-------5-7---5|----------------|-----------7---|5------7-------|
A|------7--------|7---------------|---------------|---------------|
E|---------------|----------------|---------------|---------------|


Other Choruses:

  Q.    E E E E E H.          E E  H.         E E  H      E E E E 
e|---------------|----------------|---------------|---------------|
B|---------------|----------------|---------------|---------------|
G|------------6--|------------7-5-|4------------4-|---------4-5-7-|
D|7-------5-7---5|----------------|-----------7---|5------7-------|
A|------7--------|7---------------|---------------|---------------|
E|---------------|----------------|---------------|---------------|
 |
 |(Q.)  E  Q    Q     (Q.)  E  Q    Q     (Q.)  E  Q    Q     Q    Q    Q    Q
e|---------19---20---|---------19---20---|---------19---20---|22---20---19--------|
B|------22-----------|------22-----------|------22-----------|---------------20---|
G|-------------------|-------------------|-------------------|--------------------|
D|-------------------|-------------------|-------------------|--------------------|
A|-------------------|-------------------|-------------------|--------------------|
E|-------------------|-------------------|-------------------|--------------------|
[ Tab from: http://www.guitaretab.com/m/misc-unsigned-bands/112859.html ]
http://www.myspace.com/djkhaled

|Time: 
|E (eighth), 
|Q (Quarter), 
|H (Half), 
|W (Whole), 
|. (add half of note's value; Q. = Q + E)

| /  slide up
| \  slide down
| h  hammer-on
| p  pull-off
| ~  vibrato
| +  harmonic
| x  Mute note
===============================================================================
Related for Dj Khaled - Im So Hood tab
Advertisement will be closed in 10 seconds