Song name
# A B C D E F G H I J K L M N O P Q R S T U V W X Y Z

Misc Unsigned Bands - Van Anderson - Black Castle tab

-------------------------------------------------------------------------------
		     Black Castle - Van Anderson
-------------------------------------------------------------------------------
Tabbed by: Van Anderson
Email: vexus_ltd@yahoo.com

Tuning and effects:
  Guitar 1 - Van Anderson (Edge 15+) (Drop D [EBGDAD]) (High Gain) (Reverb 4)
  Guitar 2 - (I've jammed with a couple people, but no one YET) (Edge 15+)
                    (Drop D Tuning) (High Gain)
  *****Note - All effects are set on a Peavey Special™ 212(Tell me if i've got the name 
please -_-' ) so you may need extra equipment if you want the desired effects.*****

  Intro:
Guitar 1 ~ (No Repeat) (Intro Riff)
E|----------------------------------------------------------------------------|
B|----------------------------------------------------------------------------|
G|----------------------------------------------------------------------------|
D|----0--0---0-1--1---1-3--3---3-1--1---1-0--0---0-1--1---1-3--3---3-5--5-4--4|
A|----0--0---0-1--1---1-3--3---3-1--1---1-0--0---0-1--1---1-3--3---3-5--5-4--4|
D|----0--0---0-1--1---1-3--3---3-1--1---1-0--0---0-1--1---1-3--3---3-5--5-4--4|

  Verse:
Guitar 1 ~ (Repeat TWICE) (Verse Riff 1)
E|----------------------------------------------------------|
B|o--------------------------------------------------------o|
G|----------------------------------------------------------|
D|----2--2-2--2-2---2--2-2--2-2---1--1-1--1-1---1--1-1--1-1-|
A|o---2--2-2--2-2---2--2-2--2-2---1--1-1--1-1---1--1-1--1-1o|
D|----2--2-2--2-2---2--2-2--2-2---1--1-1--1-1---1--1-1--1-1-|
         x    x        x    x        x    x        x    x

**Note - The palm mutes in this riff can be hard to grasp, but keep practicing!**
Guitar 2 ~ (Repeat 4 times) (Rhythm Verse Riff 1)
E|--------------------------------------|
B|o------------------------------------o|
G|--------------------------------------|
D|--------------------------------------|
A|o------------------------------------o|
D|----0--0-0--0-0--0--0-0-0-0--5--2--0--|

**Note - Rhythm part is kind of simple until you get to the chorus.**

Guitar 1 ~ (NO repeat) (Verse riff 2[DO NOT PLAY IN SECOND VERSE])
E|----------------------------------|
B|----------------------------------|
G|----------------------------------|
D|----0-0--1--0-0--2--0-0--1--0-0--3|
A|----0-0--1--0-0--2--0-0--1--0-0--3|
D|----0-0--1--0-0--2--0-0--1--0-0--3|

  Pre-chorus:
Guitar 1 ~ (NO repeat) (Pre-chorus riff)
E|------------------------------------|
B|------------------------------------|
G|------------------------------------|
D|----0-0-0-0--1-1-1-1--2-2-2-2--3--3-|
A|----0-0-0-0--1-1-1-1--2-2-2-2--3--3-|
D|----0-0-0-0--1-1-1-1--2-2-2-2--3--3-|

  Chorus:

Guitar 1 ~ (Repeat Once) (Chorus Lead)
|---------------------------------------------------------------------------|
|---------------------------------------------------------------------------|
|---------------------------------------------------------------------------|
|-11-11-11-9-9-9-7-7-9-9-9-11-11-11-11-11-7-7-7-7-7-7-11-11-9-9-9-9-9-9-9-9-|
|-x--x--x--9-9-9-7-7-9-9-9-x--x--x--x--x--7-7-7-7-7-7-x--x--9-9-9-9-9-9-9-9-|
|-9--9--9--7-7-7-5-5-7-7-7-9--9--9--9--9--5-5-5-5-5-5-9--9--7-7-7-7-7-7-7-7-|

Guitar 2 ~ (Repeat once) (Chorus Rhythm)
|-----------------------------------------------------------------------------------------------|
|-----------------------------------------------------------------------------------------------|
|-------------------------------------------------------------------------------------7-7-7-7-7-|
|-5-5-5-5-5-5-7-7-7-7-7-7-9-9-9-9-9-9-9-9-9-9-9-9-5-5-5-5-5-5-7-7-7-7-7-7-9-9-9-9-9-9-7-7-7-7-7-|
|-5-5-5-5-5-5-7-7-7-7-7-7-9-9-9-9-9-9-9-9-9-9-9-9-5-5-5-5-5-5-7-7-7-7-7-7-9-9-9-9-9-9-5-5-5-5-5-|
|-3-3-3-3-3-3-5-5-5-5-5-5-7-7-7-7-7-7-7-7-7-7-7-7-3-3-3-3-3-3-5-5-5-5-5-5-7-7-7-7-7-7-----------|

**Note - Both Riffs should last the same time, as the lead riff is played a little 
than you might think.**

Play Verse[read the note on the last lead riff][2nd verse].

Play Pre-chorus.

Play Chorus.

**Solo Coming soon! I'll tab it out as soon as I finish writing it ;)**

Play Chorus...

  Outro:
Guitar 1 ~ (No Repeat) (Outro Riff)
E|----------------------------------------------------------------------------|
B|----------------------------------------------------------------------------|
G|----------------------------------------------------------------------------|
D|----0--0---0-1--1---1-3--3---3-1--1---1-0--0---0-1--1---1-3--3---3-5--5-4--4|
A|----0--0---0-1--1---1-3--3---3-1--1---1-0--0---0-1--1---1-3--3---3-5--5-4--4|
D|----0--0---0-1--1---1-3--3---3-1--1---1-0--0---0-1--1---1-3--3---3-5--5-4--4|

x = palm mute

Bye for now, be back with a solo soon! Leave comments!
Tap to rate this tab
# A B C D E F G H I J K L M N O P Q R S T U V W X Y Z