Song name
# A B C D E F G H I J K L M N O P Q R S T U V W X Y Z

Misc Unsigned Bands - Nick Walton - Riptide tab

Riptide- Nick Walton  (youtube.com/diabloman) times refer to when they appear in the
(http://www.youtube.com/watch?v=gpiY_JgKxHo) also on Ultimate-Guitar.com as diablo_man

whole thing is done somewhere around 120-130 bpm i think, it been like five months, i
play it faster than in the video now

bridge p/u, standard tuning
straight time 4/4

part 1 -intro (twice)
e---------------------------------------------------------|
b---------------------------------------------------------|
g-2---------2-------2-------------------------------------|
d-0-0-0-0-0-0-0-3-5---5-3-2h3-2---------2---5-3-2---3-2---|
a-----------------------------0-0-0-0-0-0-3-------1-----3-|
E---------------------------------------------------------|

e---------------------------------------------------------------------------|
b---------------------------------------------------------------------------|
g-2---------2-------2---------------------5-3-2---3p2-----2h3p2-------------|
d-0-0-0-0-0-0-0-3-5---5-3-2h3-2---------2-------5-----5-3-------5-3-2h3p2---|
a-----------------------------0-0-0-0-0-0---------------------------------3-|
E---------------------------------------------------------------------------|

Part 2 - intro part 2 (twice) [0min 23sec]
e---------------------------------------------------------------------|
b---------------------------------------------------------------------|
g-2---------2-2---------------------------2---------------------------|
d-0-0-0-0-0-0---5-3-2-5-3-2-3-5---------5---5-3-2-5-3-2-3-3---------3-|
a-----------------------------3-3-3-3-3-3-----------------1-1-1-1-1-1-|
E---------------------------------------------------------------------|


e---------------------------------------------------|
b---------------------------------------------------|
g-2---------------5-3-2---3p2-----2h3p2-------------|
d---5-3-2-5-3-2-3-------5-----5-3-------5-3-2h3p2---|
a-------------------------------------------------3-|
E---------------------------------------------------|


part 3 (verse chording) repeat twice [0min 38sec]

e-------------------------------------|
b-3-3-----5-5-----6---6---6----8----6-|
g-2-2-----2-2-----5---5---5----7----5-|
d-0-0-0-0-0-0-0-0-3-3-3-3-3-55-5-33-3-|
a-------------------------------------|
E-------------------------------------|

			  let ring
e-------------------------------------|
b-3-3-----5-5-----6---6---6---------5-|
g-2-2-----2-2-----5---5---5---------4-|
d-0-0-0-0-0-0-0-0-3-3-3-3-3---------2-|
a-------------------------------------|
E-------------------------------------|


Part 4 (mini solo thing) see video for timing and implementation
	A) [0min 54sec]
e--------------------------------------------------------------------------------|
b--------------------------------------------------------------------------------|
g-10p7---10p7---10p7-10p7---10p7---10p7-9p7---9p7---9p7-9p7---9p7---9p7-12p10----|
d------7------7-----------7------7----------7-----7---------7-----7-----------10-|
a--------------------------------------------------------------------------------|
E--------------------------------------------------------------------------------|

-------------------------------------------------------------------------------------|
-------------------------------------------------------------------------------------|
-12p10----12p10-12p10----12p10----12p10-14p12----12p10----14p12-15p12----14p12----14-|
-------10-------------10-------10-------------12-------10-------------12-------12----|
-------------------------------------------------------------------------------------|
-------------------------------------------------------------------------------------|

	B) (exact same except for the last note) [1min 1sec]
e--------------------------------------------------------------------------------|
b--------------------------------------------------------------------------------|
g-10p7---10p7---10p7-10p7---10p7---10p7-9p7---9p7---9p7-9p7---9p7---9p7-12p10----|
d------7------7-----------7------7----------7-----7---------7-----7-----------10-|
a--------------------------------------------------------------------------------|
E--------------------------------------------------------------------------------|

(vibrato let ring on last note)
--------------------------------------------------------------------------------------|
--------------------------------------------------------------------------------------|
-12p10----12p10-12p10----12p10----12p10-14p12----12p10----14p12-15p12----14p12----17~-|
-------10-------------10-------10-------------12-------10-------------12-------12-----|
--------------------------------------------------------------------------------------|
--------------------------------------------------------------------------------------|


Do part 3 again (the chording bit) [1min 9sec]

then the awesome riff!
Part 5 (do 4 times)[1min26sec]
e--------------------------------------------|
b--------------------------------------------|
g-2-2-----5-5---------------------2----------|
d-0-0-0-0-3-3-3h5p3\2-2-2---2h3h5---5p3p2-^--|
a---------------------3-3-3---------------3--|(pinch harmonic sounds good here,
E--------------------------------------------|if you can pull it off seamlessly)


the next parts would be time consuming and nearly pointless for me to completely tab out,
so here are the chords, watch the video for how to play them. if that isn't enough for
of you, and you
would like a more comprehensive tab of it, say so, but realize i will probably never get 
to it in
favour of tabbing out other songs, eating, sleeping and drinking :). these parts are
for a future guitar

solo.

part 6[1min43sec]

also chug the root note of each chord in between as in video, and i think you play the
twice for each time it

is written.
-------------------|------------------|
-3-3--6-6------8-8-|-3-3-6-6-----8-10-|
-2-2--5-5--5-5-7-7-|-2-2-5-5-5-5-7-9--|
-0-0--3-3--5-5-5-5-|-0-0-3-3-5-5-5-7--|
-----------3-3-----|---------3-3------|
-------------------|------------------|

part 7[1min59sec] 3 times
----------------------------------|
----------------------------------|
-2----2----5----5-----------------|
-0----0----3----3----5----3-3-2---|
---------------------3----1-1-0-3-|
--------------------------------1-|
then do
------------------------------------|
------------------------------------|
-2----2----5----5-------------------|
-0----0----3----3----5(several-/7-7-|
---------------------3 times)--/5-5-|
------------------------------------|

then back to part 5 for the finish.wooo!

| /  slide up
| \  slide down
| h  hammer-on
| p  pull-off
| ~  vibrato
| +  harmonic
| x  Mute note
Tap to rate this tab
# A B C D E F G H I J K L M N O P Q R S T U V W X Y Z