Song name
# A B C D E F G H I J K L M N O P Q R S T U V W X Y Z

Misc Unsigned Bands - Zach Steward - Its About You tab

-------------------------------------------------------------------------------
			     It's About You - Zach Steward
-------------------------------------------------------------------------------
Tabbed by: Toast

Tuning: Standard (Capo 1st fret)


Chords
|---3------3-------3------3-------------------------------------------------|
|---3------3-------3------3-------------------------------------------------|
|---0------2-------0------0-------------------------------------------------|
|---0------0-------2------2-------------------------------------------------|
|---2------x-------2------3-------------------------------------------------|
|---3------2-------0------x-------------------------------------------------|

Just play this troughout the whole song.
Still working on it.
Zach uses a capo on the new version, but the old one is in regular standard tuning.

Not 100% correct...but it works:)




| /  slide up
| \  slide down
| h  hammer-on
| p  pull-off
| ~  vibrato
| +  harmonic
| x  Mute note
===========================================================================
Tap to rate this tab
# A B C D E F G H I J K L M N O P Q R S T U V W X Y Z