Song name
# A B C D E F G H I J K L M N O P Q R S T U V W X Y Z

Misc Unsigned Bands - Plutonium Kryptonite - Tesseract tab

E[4-5-0-5-4---------------------------------------------------4-5-0-5-4]
B[--------------------------------------------------4-5-0-5-4----------]
G[----------------------------------------4-5-0-5-4--------------------]:[  
D[------------------------------4-5-0-5-4------------------------------]
A[--------------------4-5-0-5-4----------------------------------------]
E[----------4-5-0-5-4--------------------------------------------------]

E[----5---------------------------------------5---]
B[-4-5-5-4----------------------------5----4-5-5-4]
G[----------------------------5----4-5-5-4--------]:[      Repeat 2x
D[--------------------5----4-5-5-4----------------]
A[------------5----4-5-5-4------------------------]
E[---------4-5-5-4--------------------------------]

E[----------------------12-15-14-12-------------------------------------]
B[-------------------12-------------15-13-12----------------------------]
G[----------------12-------------------------14-11-14-12-14-11-12----11-]
D[-------------14-------------------------------------------------14----]
A[----------14----------------------------------------------------------]
E[-[o]12-15-------------------------------------------------------------]

E[-------------------------------5/7---------]
B[-----------------------------------8-7-5/7-]
G[----11-------------------------------------]
D[-13----14-------12-------------------------]
A[----------15-14----15-12-14----------------]
E[----------------------------15-------------]
                          Chorus:
E[-3-3-3-3-3-3-3-3-2-2-2-2-2-2-2-2-0-0-0-0-0-0-0-0-]
B[-3-3-3-3-3-3-3-3-3-3-3-3-3-3-3-3-2-2-2-2-2-2-2-2-]
G[-0-0-0-0-0-0-0-0-2-2-2-2-2-2-2-2-2-2-2-2-2-2-2-2-] :[
D[-0-0-0-0-0-0-0-0-0-0-0-0-0-0-0-0-2-2-2-2-2-2-2-2-]
A[-2-2-2-2-2-2-2-2-----------------0-0-0-0-0-0-0-0-]
E[-3-3-3-3-3-3-3-3---------------------------------]
Tap to rate this tab
# A B C D E F G H I J K L M N O P Q R S T U V W X Y Z