Song name
# A B C D E F G H I J K L M N O P Q R S T U V W X Y Z

Misc Unsigned Bands - Jacob Popowski - Professional Help tab

Help us improve GuitareTab! Take a short survey!
               Professional help by Jacob Popowski  
 Standard or 1/2 step down tuning
 Intro played at 150bpm, Main part at 200 bpm, The other part at 155 bpm, solo at 200-150 bpm.

Order
Intro x1
Main Part x3
Other part x1
Intro x1
Main part x3
Other part x1
Intro x1 minus power chords
Solo x1
fill one x1
Main part x3
Other Part x1
intro x1 minus power chords
solo 2 x1
Fill 1 x1
Main part x3
Fill 2/ Outro x1


                        Intro
e|---------------------------------------------------------------------------|
B|---------------------------------------------------------------------------|
G|---------------------------------------------------------------------------|
D|-5---5---4---4---3---3-2----5---5---4---4---3---3-2-----5---5---4---4---3--|
A|---------------------------------------------------------------------------|
E|---3---3---2---2---1----------3---3---2---2---1-----------3---3---2---2---1|


e|---------------------------------------------------------------------------|
B|---------------------------------------------------------------------------|
G|---------------------------------------------------------------------------|
D|-3----2---5-7--------------------------------------------------------------|
A|----------5-7--------------------------------------------------------------|
E|----------3-5--------------------------------------------------------------|

                     Main Part
e|---------------------------------------------------------------------------|
B|---------------------------------------------------------------------------|
G|---------------------------------------------------------------------------|
D|---------------------------------------------------------------------------|
A|---------------------------------------------------------------------------|
E|0-000-000-000-000-000-000-000-000-000-005p3p0--5p3p0-5p3p0--5p3p0-5p3p0----|
pm. ... ... ... ... ... ... ... ... ... .......  ..... .....  ..... .....

e|---------------------------------------------------------------------------|
B|---------------------------------------------------------------------------|
G|---------------------------------------------------------------------------|
D|---------------------------------5-7---------------------------------------|
A|---------------------------------5-7---------------------------------------|
E|-5p3p0--5p3p0-5p3p0--5p3p0-5p3p0-3-5---------------------------------------|
 pm.....  ..... .....  ..... .....
         The other part
e|---------------------------------------------------------------------------|
B|---------------------------------------------------------------------------|
G|---------------------------------------------------------------------------|
D|-8/7/8-5-8/7/8-5-8/7/8-8/7/8-8/7/8-10--9--7---5----------------------------|
A|-8/7/8-5-8/7/8-5-8/7/8-8/7/8-8/7/8-10--x--x---x----------------------------|
E|-6/5/6-3-6/5/6-3-6/5/6-6/5/6-6/5/6-8---7--5---3----------------------------|

    Fill One               Fill 2
e|------------------|--------------------------------------------------------|
B|------------------|--------------------------------------------------------|
G|------------------|--------------------------------------------------------|
D|-5---7------------|-0------------------------------------------------------|
A|-5---7------------|-0------------------------------------------------------|
E|-3---5------------|-0------------------------------------------------------|

                      Solo 1
e|----------------------------------14------------------------15-------------|
B|-------------------------14----13---------------------15--14---------------|
G|----------------14----13----12------------------15--14--13-----------------|
D|-------14----13----12---------------------15--14--13-----------------16----|
A|----13----12---------------------------14---13--------------------15----14-|
E|-12---------------------------------13-------------------------14----------|

                            Trem. pick 22
e|----------------------16/22-22-22-22-22-22-22-22-22-22-22-22-22-22-22-22-22|
B|-------------16----15------------------------------------------------------|
G|----16----15----14---------------------------------------------------------|
D|-15----14------------------------------------------------------------------|
A|---------------------------------------------------------------------------|
E|---------------------------------------------------------------------------|


e|-22-22-22-22-22-22-22-22-22-22-22-22-22-22br~----15p14p12------------------|
B|----------------------------------------------------------15p14p12---------|
G|-------------------------------------------------------------------15p14~--|
D|---------------------------------------------------------------------------|
A|---------------------------------------------------------------------------|
E|---------------------------------------------------------------------------|


e|---------------------------------------------------------------------------|
B|-15p14p12------------------------------------------------------------------|
G|----------15p14p12--------15p14p12-----------------------------------------|
D|-------------------15p14~----------15p14p12--------15p14p12----------------|
A|--------------------------------------------15p14~----------15p14p12-------|
E|---------------------------------------------------------------------15p14~|


e|---------------------------------------------------------------------------|
B|---------------------------------------------------------------------------|
G|---------------------------------------------------------------------------|
D|---------------------------------------------------------------------------|
A|---------------------------------------------------------------------------|
E|-0-------------------------------------------------------------------------|

            Solo 2
e|-----15p12----------12-15p12-----17p14----------14-17p14-----19p16---------|
B|-----------13----13----------13~-------15----15----------15~-------17----17|
G|--------------14--------------------------16--------------------------18---|
D|---------------------------------------------------------------------------|
A|-0-------------------------------------------------------------------------|
E|-0-------------------------------------------------------------------------|


e|16-19p16-------22~---------------------------------------------------------|
B|---------17~---------------------------------------------------------------|
G|---------------------------------------------------------------------------|
D|--------------------0------------------------------------------------------|
A|--------------------0------------------------------------------------------|
E|--------------------0------------------------------------------------------|


Good Luck.
Related for Jacob Popowski - Professional Help tab