Song name
# A B C D E F G H I J K L M N O P Q R S T U V W X Y Z

Misc Unsigned Bands - The Oblivous Life - I Think I Am Inlove tab

The Oblivious Life
I Think I Am Felling In Love
Written by Kyler Riester AKA theOL

Standard Tuning


Intro
e:----0---0---0-----|
B:--1---0---3-----0-|
G:---2---2---0--0---|
D:-2---2---0-----2--|
A:-------------2----|
C:------------------|

Verse
e:-0-0-0-0-0-0-0-0-0-0-0-0-0-0-0-0-0-0-0-0-0-0-0-0-0-0-0-0|
B:-1-1-1-1-1-1-1-0-0-0-0-0-0-0-3-3-3-3-3-3-3-0-0-0-0-0-0-0|
G:-2-2-2-2-2-2-2-2-2-2-2-2-2-2-0-0-0-0-0-0-0-0-0-0-0-0-0-0| x4
D:-2-2-2-2-2-2-2-2-2-2-2-2-2-2-0-0-0-0-0-0-0-2-2-2-2-2-2-2|
A:-0-0-0-0-0-0-0-0-0-0-0-0-0-0---------------2-2-2-2-2-2-2|
C:-0-0-0-0-0-0-0-0-0-0-0-0-0-0---------------0-0-0-0-0-0-0|

Chorus
e:-0-0-0-0-0-0-0-0--|
B:-1-1-0-0-3-3-0-0--|
G:-2-2-2-2-0-0-0-0--| x2
D:-2-2-2-2-0-0-2-2--|
A:-0-0-0-0-----0-0--|
C:-0-0-0-0-----0-0--|


intro
Verse
chorus
verse
chorus
verse
chorus
verse
then use intro as outro

note: it is better if u use 2 guitars acustic for intro and verse and elec for chorus. 
pm me if u like
Tap to rate this tab
# A B C D E F G H I J K L M N O P Q R S T U V W X Y Z