Song name
# A B C D E F G H I J K L M N O P Q R S T U V W X Y Z

Misc Unsigned Bands - The Catholic Comb - Sixteen To Twenty One tab

Help us improve GuitareTab! Take a short survey!
this is my first tab so im sorry for any misunderstandings.

intro

e-|---------------------|
b-|---------------------|   play 6x i think
g-|-2--1--1-2-4-1--1----|
d-|-2--2--2-2-4-2--2----|
a-|-0--0--0-0-0-2--0----|
E-|-------------0-------|

LEAD

e-|-------------------------------|  come in after intro plays twice.
b-|--4-5-4-5-4---4-5--------------|
g-|-4-----2---4-2---4--4-2-4-4----| play 4x ring the last note out on the
d-|-------------------------------|  the last time.
a-|-------------------------------|
E-|-------------------------------|

verse

e-|---------------------|  pretty much the same as intro.
b-|---------------------|
g-|-2--1--1-2-4-1--1----|
d-|-2--2--2-2-4-2--2----|
a-|-0--0--0-0-0-2--0----|
E-|-------------0-------|


im still working on the chorus.


heres the little thingy later in the song (3:33)
it goes something like this, just mess around with it.

e-|----------|
b-|----9-----|
g-|-----9----|
d-|--9-------|
a-|-7--------|
e-|----------|

its not a 100% correct but its desent, if you find anything incorrect, let me
know so i can change it.
jonronswong@aim.com

thanks

http://www.myspace.com/thecatholiccomb
Related for The Catholic Comb - Sixteen To Twenty One tab