Song name
# A B C D E F G H I J K L M N O P Q R S T U V W X Y Z

Misc Unsigned Bands - Never Coming Home - Today Was The Day tab

Guitar 1: Senan Warnock -clean 
Guitar 2: Eoin O'Gorman -Distortion

Okay I'll just give this a try.

This is the chord procession played through 
the Intro, verse and after the Chorus By Guitar 1.
 Guitar 2 plays this at the intro and after the chorus

e|------------------------------33333333-----------------------------------|
B|--------------------33333333--22222222-----------------------------------|
G|22222222--33333333--22222222--00000000-----------------------------------|
D|22222222--22222222--00000000--00000000-----------------------------------|
A|22222222--22222222--22222222--22222222-----------------------------------|
E|22222222--22222222--22222222--22222222-----------------------------------|

Chorus:
Guitar 1
e|-------------------------------------------------------------------------|
B|------------3~-----------------------------------------------------------|
G|2~----3~----2~-----------------------------------------------------------|
D|2~----2~----0~-----------------------------------------------------------|
A|2~----2~----2~-----------------------------------------------------------|
E|2~----2~----2~-----------------------------------------------------------|

Guitar 2
e|------------------------------------------------------------------------|
B|------------------------------------------------------------------------|
G|-----5~-----------------------------------------------------------------|
D|7~---5~---5~------------------------------------------------------------|
A|7~---3~---5~------------------------------------------------------------|
E|5~--------3~------------------------------------------------------------|

Verse:
guitar 2
e|-------------------------------------------------------------------------|
B|19-17-15~--10-12~--15-12-14~--17-15~--19-17-15~--12-14-15~---------------|
G|-------------------------------------------------------------------------|
D|-------------------------------------------------------------------------|
A|-------------------------------------------------------------------------|
E|-------------------------------------------------------------------------|


Bridge:
Gtr1 + gtr 2
e|-------------------------------------------------------------------------|
B|----------------- elevens------------------------------------------------|
G|-------------------V-V-V-------------------------------------------------|
D|5555555577777777711111111999977777777------------------------------------|
A|5555555577777777711111111999977777777------------------------------------|
E|333333335555555559 9 9 9 777755555555------------------------------------|



I won't put the solo in yet because I'm not sure if it's going in.
Tap to rate this tab
# A B C D E F G H I J K L M N O P Q R S T U V W X Y Z