Song name
# A B C D E F G H I J K L M N O P Q R S T U V W X Y Z

Misc Unsigned Bands - Dear Juliet - Im Ready tab

I did not feel like tabbing the whole thing so basically I just did the intro, and it 
changes a little bit but the main part in the song is right here. And if enough people 
it saying do the whole thing I will do the whole thing okay?

So comment it and you will get the whole song basically.

Well here is what I have..........................................

Capo 3*
E---------------------------|
B----0----0------------0----|
G--------------------2--2---|
D------4----4----2/4--------|
A-2-----------------------2-|
E--------0----0-------------|

E---------------------------|
B----0----0------------0----|
G--------------------2--2---|
D------4----4----2/4--------|
A-2-----------------------2-|
E--------0----0-------------|
Tap to rate this tab
# A B C D E F G H I J K L M N O P Q R S T U V W X Y Z