Song name
# A B C D E F G H I J K L M N O P Q R S T U V W X Y Z

Misc Unsigned Bands - Chubby Tuff - Stoned Frog In A Fishing Well tab

For the people that dont know who Chubby Tuff is its a Ska band from Tampa, FL 
underground but all their songs are downloadable at myspace.com/chubbytuff and
purevolume.com/chubbytuff

Tuning: Drop D
Song: Stoned Frog In A Wishing Well
Artist: Chubby Tuff


|------------|
|------------|
|------------|
|--2---2x----|
|--2---2x----|
|--2---2x----|

|-----19*----|
|-19*--------|
|------------|
|------------|
|------------|
|------------|

|------------|
|------------|
|------------|
|--2---2x----|
|--2---2x----|
|--2---2x----|

|--------------------------------------------------------------------|x2
|--------------------------------------------------------------------|
|--------------------------------------------------------------------|
|--2-2-2-2-2-2--4-4-4-4-4-4--7-7-7-7-7-7--9-9-9-9-9-9----------------|
|--2-2-2-2-2-2--4-4-4-4-4-4--7-7-7-7-7-7--9-9-9-9-9-9----------------|
|--2-2-2-2-2-2--4-4-4-4-4-4--7-7-7-7-7-7--9-9-9-9-9-9----------------|

|--------------------------------------------------------------------|x2
|--------------------------------------------------------------------|
|--------------------------------------------------------------------|
|--2-2-2-2-2-2--4-4-4-4-4-4--9-9-9-9-9-9--7-7-7-7-7-7----------------|
|--2-2-2-2-2-2--4-4-4-4-4-4--9-9-9-9-9-9--7-7-7-7-7-7----------------|
|--2-2-2-2-2-2--4-4-4-4-4-4--9-9-9-9-9-9--7-7-7-7-7-7----------------|
PM   . . . . .    . . . . .    . . . . .    . . . . .

|--------------------------------------------------------------------|x2
|--------------------------------------------------------------------|
|--------------------------------------------------------------------|
|--2-2-2-2-2-2--4-4-4-4-4-4--7-7-7-7-7-7--9-9-9-9-9-9----------------|
|--2-2-2-2-2-2--4-4-4-4-4-4--7-7-7-7-7-7--9-9-9-9-9-9----------------|
|--2-2-2-2-2-2--4-4-4-4-4-4--7-7-7-7-7-7--9-9-9-9-9-9----------------|

|--------------------------------------------------------------------|x2
|--------------------------------------------------------------------|
|--------------------------------------------------------------------|
|--2-2-2-2-2-2--4-4-4-4-4-4--9-9-9-9-9-9--7-7-7-7-7-7----------------|
|--2-2-2-2-2-2--4-4-4-4-4-4--9-9-9-9-9-9--7-7-7-7-7-7----------------|
|--2-2-2-2-2-2--4-4-4-4-4-4--9-9-9-9-9-9--7-7-7-7-7-7----------------|
PM   . . . . .    . . . . .    . . . . .    . . . . .

comment me if this is wrong
Tap to rate this tab
# A B C D E F G H I J K L M N O P Q R S T U V W X Y Z