Guitaretab - guitar tabs
Song name
# A B C D E F G H I J K L M N O P Q R S T U V W X Y Z

Misc Unsigned Bands - Jonwood - Left Alone Again tab

-------------------------------------------------------------------------------
			     LEFT ALONE AGAIN... - Jonwood
-------------------------------------------------------------------------------
Tabbed by:Jonwood
Email:...

Tuning: Standard


  LET RING ALL NOTES----------->>> WHOLE SONG
Gtr 1:
e|----------------------------------|
B|-------------9--------------------|
G|----------11--------------11------|
D|--------9---------------9---------| X2
A|-----11-------------11------------|
E|-----------------0----------------|

e|-----------------------------------------------|
B|--------------9----11h12-----------------------|
G|---------11-----11--------------------11---9p8-|
D|-------9----9--------------------9-------9-----| x8
A|----11------------------------11---11----------|
E|----------------------------0------------------|
[ Tab from: http://www.guitaretab.com/m/misc-unsigned-bands/112983.html ]
Gtr 2:  Nothing for two bars and then:
PM--------->>>
e|----------------------------------------------------|
B|----------------------------------------------------|
G|----------------------------------------------------|
D|---9--9--9--9--9--9--9--9--9--9--9--9--9--9--9--9---|
A|--11-11-11-11-11-11-11-11-11-11-11-11-11-11-11-11---|
E|---------------------------0--0--0--0--0--0--0--0---|

e|---11-11-11-11-11-11-11-11-0--0--0--0--0--0--0--0----|
B|---12-12-12-12-12-12-12-12-12-12-12-12-12-12-12-12---|
G|---13-13-13-13-13-13-13-13-13-13-13-13-13-13-13-13---|
D|---13-13-13-13-13-13-13-13-14-14-14-14-14-14-14-14---|
A|---11-11-11-11-11-11-11-11-14-14-14-14-14-14-14-14---|
E|---------------------------0--0--0--0--0--0--0--0----|


| /  slide up
| \  slide down
| h  hammer-on
| p  pull-off
| ~  vibrato
| +  harmonic
| x  Mute note
===============================================================================
Related for Jonwood - Left Alone Again tab