Song name
# A B C D E F G H I J K L M N O P Q R S T U V W X Y Z

Misc Unsigned Bands - Kodan Armada - The Butterfly Effect tab

Help us improve GuitareTab! Take a short survey!
http://www.last.fm/music/The+Kodan+Armada

The Kodan Armada - The Butterfly Effect Intro Tab
Credit: Billybusa (Me)
Tuning: Standard

Let ring all notes
E||--------------------------|----------------------------|
B||--------------------------|----------------------------|
G||--------------------------|-----7--6h7p6------------4--|
D||-----------9--------------|----------------------------|
A||-----5-----------5-----5--|-------------------5--------|
E||--7-----7-----7-----5-----|--5-------------3-----3-----|

--------------------------|--------------------------|
--------------------------|--------------------------|
-----------------2--------|--------------------------|
--------------------------|-----------9--------------|
-----5-----5-----------5--|-----5-----------5-----5--|
--3-----2-----2-----2-----|--7-----7-----7-----5-----|

----------------------------|--------------------------|
----------------------------|--------------------------|
-----7--6h7p6------------4--|--------------------------|
----------------------------|--------------------------|
-------------------5--------|-----5-----5--------5-----|
--5-------------3-----3-----|--3-----2-----2--3-----2--|

-------------------------------|--------------------------------|
-------------------------------|--------------------------------|
-------------------------------|--------------------------------|
--2--2-2-2-2-2--2-2-2-2-2--2-2-|--2-2-4-4-4-4-4-4-5--5-5-5-5-5--|
--2--2-2-2-2-2--2-2-2-2-2--2-2-|--2-2-4-4-4-4-4-4-5--5-5-5-5-5--|
-------------------------------|--------------------------------|

--------------------------------|-------------------------------|
--------------------------------|-------------------------------|
--------------------------------|-------------------------------|
--5-5-5-5-4--4-4-4-4-4--4-4-4-4-|--2--2-2-2-2-2--2-2-2-2-2--2-2-|
--5-5-5-5-4--4-4-4-4-4--4-4-4-4-|--2--2-2-2-2-2--2-2-2-2-2--2-2-|
--------------------------------|-------------------------------|

        --------------------------------|--------------------------------|----|----|
   --------------------------------|--------------------------------|----|---------|
|     --------------------------------|--------------------------------|----|------|
|     --2-2-4-4-4-4-4-4-5--5-5-5-5-5--|--5-5-5-5-5--5-5-5-5-5--5-5-5-5-|----|------|
|     --2-2-4-4-4-4-4-4-5--5-5-5-5-5--|--5-5-5-5-5--5-5-5-5-5--5-5-5-5-|----|------|
|     --------------------------------|--------------------------------|----|------|

then it's just alot of unhearable distortion

Enjoy!!
Related for Kodan Armada - The Butterfly Effect tab