Song name
# A B C D E F G H I J K L M N O P Q R S T U V W X Y Z

Misc Unsigned Bands - The Oblivious Life - Lost Love tab

The Oblivious Life - Lost Love
by: Kyler Riester AKA theOL
Intro
e:------0------0------0-|
B:-----0------0------0--|
G:----0------0------0---| x1
D:---0------0------0----|
A:--7------5------3-----|
E:-7------5------3------|
Sruming is difficult so ill try to make it easy
^= down strum V= up strum
 Chorus  
   ^ ^ ^ ^ v ^ v ^ v ^ ^ ^ ^ ^ v ^ v ^ v ^ ^ ^ ^ ^ v ^ v ^ v ^
e:-------0-0-0-0-0-0-0-------0-0-0-0-0-0-0-------0 -0-0-0-0-0-0| 
B:-------0-0-0-0-0-0-0-------0-0-0-0-0-0-0-------0 -0-0-0-0-0-0| 
G:-------0-0-0-0-0-0-0-------0-0-0-0-0-0-0-------0 -0-0-0-0-0-0| 
D:-------0-0-0-0-0-0-0-------0-0-0-0-0-0-0-------0 -0-0-0-0-0-0| 
A:-7-7-7-7-7-7-7-7-7-7-3-3-3-3-3-3-3-3-3-3-5-5-5-5 -5-5-5-5-5-5| 
E:-7-7-7-7-7-7-7-7-7-7-3-3-3-3-3-3-3-3-3-3-5-5-5-5 -5-5-5-5-5-5| 
   ^ ^ ^ ^ v ^ v ^ v ^ 
e:-------0-0-0-0-0-0-0|
B:-------0-0-0-0-0-0-0|
G:-------0-0-0-0-0-0-0| x2
D:-------0-0-0-0-0-0-0|
A:-7-7-7-7-7-7-7-7-7-7|
E:-7-7-7-7-7-7-7-7-7-7|
Verse
   ^ ^ ^ ^ v ^ v ^ v ^ ^ ^ ^ ^ v ^ v ^ v ^ ^ ^ ^ ^ v ^ v ^ v ^
e:-------0-0-0-0-0-0-0-------0-0-0-0-0-0-0-------0 -0-0-0-0-0-0| 
B:-------0-0-0-0-0-0-0-------0-0-0-0-0-0-0-------0 -0-0-0-0-0-0| 
G:-------0-0-0-0-0-0-0-------0-0-0-0-0-0-0-------0 -0-0-0-0-0-0| 
D:-------0-0-0-0-0-0-0-------0-0-0-0-0-0-0-------0 -0-0-0-0-0-0| 
A:-7-7-7-7-7-7-7-7-7-7-5-5-5-5-5-5-5-5-5-5-3-3-3-3 -3-3-3-3-3-3| 
E:-7-7-7-7-7-7-7-7-7-7-5-5-5-5-5-5-5-5-5-5-3-3-3-3 -3-3-3-3-3-3| 

e:-0-0-0-0-0-0-0-0-0-0|
B:-0-0-0-0-0-0-0-0-0-0|
G:-0-0-0-0-0-0-0-0-0-0| x4
D:-0-0-0-0-0-0-0-0-0-0|
A:-3-3-3-3-3-3-3-3-3-3|
E:-3-3-3-3-3-3-3-3-3-3|
Outro: its the intro so just play the intro twice

Intro
Chorus
Verse
Chorus
Verse
Chorus
Verse
Chorus
Outro or intro twiece 
Tap to rate this tab
 
# A B C D E F G H I J K L M N O P Q R S T U V W X Y Z