Song name
# A B C D E F G H I J K L M N O P Q R S T U V W X Y Z

Misc Unsigned Bands - Outkast Angel - Godfather Metal tab

-----------------------------------------------------------------
GodFather Metal - OutKast Angel
-----------------------------------------------------------------
Tabbed by:Drake Carter
Email:DrakeCarter1@gmail.com

Tuning:e standard

{part in bettween these {} is a fast strum almost taping solo intro }

e|{12-15-14--12-15-14--12-15-14---12-15-14-13--12-15-14-13-}--------------------------|
B|------------------------------------------------------------15-14-15-16-------------|
G|------------------------------------------------------------------------------------|
D|------------------------------------------------------------------------------------|
A|------------------------------------------------------------------------------------|
E|------------------------------------------------------------------------------------|

e|-------------------------------------------------------------------------------|
B|-15-15----15-14-15-16-15-15---15-14-18-15-14-15-(15)-14-(14)--------14-(14)----|
G|------15-------------------14--------------------------------14-(14)---------14|
D|-------------------------------------------------------------------------------|
A|-------------------------------------------------------------------------------|
E|-------------------------------------------------------------------------------|

e|----12-15-14-12-15-12-14-12--------------12-15-14-12-15-12-14-12-----------|
B|-12-------------------------13-15-12--12-------------------------12-11-10--|
G|---------------------------------------------------------------------------|
D|---------------------------------------------------------------------------|
A|---------------------------------------------------------------------------|
E|---------------------------------------------------------------------------|

e|------12-14-------11-12--------------------------------------10-10-9-8-10-12--------|
B|10-14-------10-14------------15-13-12-15-12-13-12----------------------------11-10--|
G|------------------------9-12----------------------11-12-9---------------------------|
D|------------------------------------------------------------------------------------|
A|------------------------------------------------------------------------------------|
E|------------------------------------------------------------------------------------|

e|9-10----------------------------------------------------------------|
B|--------------------------------------------------------------------|
G|--------------------------------------------------------------------|
D|--------------------------------------------------------------------|
A|-------2------------------------------------------------------------|
E|-------0------------------------------------------------------------|
Tap to rate this tab
# A B C D E F G H I J K L M N O P Q R S T U V W X Y Z