Song name
# A B C D E F G H I J K L M N O P Q R S T U V W X Y Z

Misc Unsigned Bands - Vinson - In Memories Of You tab

**********************************************************************
In Memories Of You
Standard Tuning

E A D G B E

Vinson®
Watashi no Giita©

**********************************************************************
  x:

E|-7---7---5----5---3---3---2---2----------------|
B|-----------------------------------------------|
G|---0---0----0---0---0---0---0---0--------------|
D|--0-0-0-0--0-0-0-0-0-0-0-0-0-0-0-0-------------|
A|--------------------------2--------------------|
E|-3-------2--------0----------------------------|

E|--0---0---3---3---7---7----10-10-8-7-5---------|
B|----0---0---0---0---0---0----------------------|
G|---0-0-0-0-0-0-0-0-0-0-0-0---0-----------------|
D|-----------------------------------------------|
A|--3---------------0-------0--------------------|
E|----------3------------------------------------|

E|-3---3---3----3---2----2---5---5---------------|
B|-----------------------------------------------|
G|---0---0---0---0-----0---0---0---0-------------|
D|--0-0-0-0-0-0-0-0-2-2-2-2-2-0-0-0-0------------|
A|-3-------2-----------------2-------------------|
E|-----------------------------------------------|

E|-3---3---3---3----2----2---5---5---5---5-5p-5-5-|
B|------------------------------------------------|
G|---0---0---0---0-----0---0---0---0---0----------|
D|--0-0-0-0-0-0-0-0-2-2-2-2-2-0-0-0-0-0-0---------|
A|-3-------2-----------------2--------------------|
E|------------------------------------------------|

E|-7--7-5-5-3-2-0-2-3--7--7-5-3-5p10-10-8-7------|
B|-----------------------------------------------|
G|---0---0-----0-0-0-0---0---0-0----0--0-0-0-----|
D|--0---0-----2---------0---0--------------------|
A|-3-------------------3-------------------------|
E|------------------------------0----------------|

E|7--7-5-5-3-2-0-2-3--7--7-5-3-------------------|
B|-----------------------------------------------|
G|--0---0-----0-0-0-0---0---0-0------------------|
D|-0---0-----2---------0---0---------------------|
A|3-------------------3--------------------------|
E|-----------------------------------------------|

E|-2-0-2-3--3--2-0-2--3-0-3-0--3p5-5-3-2---------|
B|-----------------------------------------------|
G|--0-0-0-0---0-0-0-0--0-0-0-0----0-0-0-0--------|
D|-2---------------------------0-----------------|
A|----------2---------3--------------------------|
E|-----------------------------------------------|

E|-0-2-3-2-2-2-0-2-3-0-0-3--3p5-5-5-5-3-3-3-3----|
B|-----------------------------------------------|
G|--0-0-0-0-0-0-0-0-0-0-0-0----0-0-0-0-0-0-0-0---|
D|-2------------------------0--------------------|
A|---------2-------3-----------------------------|
E|-----------------------------------------------|

   return to x
 after this part: |
                  V
E|-2-2-2-2-0-0-0-0--|-0-2-3-3p5-5-5-0-3--2-2----0------0--3-0-|
B|------------------|------------------------3-3----0h3-------|
G|--0-0-0-0-0-0-0-0-|--0-0-0-----0-0-0-0--0-0-0----0-----0----|
D|------------------|-2---------------------------2-----2-----|
A|------------------|-----------3--------0--------------------|
E|------------------|-----------------------------------------|

E|-0-2-3-3p5-5-5-0-3--2-2----0-0--0--------|
B|------------------------3-3---3--3-3-----|
G|--0-0-0-----0-0-0-0--0-0-0-----0--0------|
D|-2--------------------------2------------|
A|-----------3--------0--------------------|
E|-----------------------------------------|

E|-0-2-3-3p5-5-5-0-3--2-2----0------0--3-0-|
B|------------------------3-3----0h3-------|
G|--0-0-0-----0-0-0-0--0-0-0----0-----0----|
D|-2---------------------------2-----2-----|
A|-----------3--------0--------------------|
E|-----------------------------------------|

E|0-2-3-3p5-5-5-0-3--2-2----0--------------|
B|-----------------------3-3---------------|
G|-0-0-0-----0-0-0-0--0-0-0----------------|
D|2----------------------------------------|
A|----------3--------0---------------------|
E|-----------------------------------------|

  Ending:

E|-----2-------0-------0------0-------12ha-|
B|---3---3---3---3---3----3---0-------12ha-|
G|--0-0-0-0-0-0-0-0-2-2--2----0-------12ha-|
D|-2---------------0----------2------------|
A|---------3------------------2------------|
E|----------------------------0------------|

  Alternate Ending with Em/G:

E|-----2-------0-------0--------------12ha-|
B|---3---3---3---3---3----3------0----12ha-|
G|--0-0-0-0-0-0-0-0-2-2--2-2----0-----12ha-|
D|-2---------------0-----------2-----------|
A|---------3------------------2------------|
E|---------------------------3-------------|

p  : Pull
h  : Hammer
ha : Harmonics


V iN : alchemist_edo@hotmail.com
Tap to rate this tab
# A B C D E F G H I J K L M N O P Q R S T U V W X Y Z