Song name
# A B C D E F G H I J K L M N O P Q R S T U V W X Y Z

Misc Unsigned Bands - 666 - Mueve tab

TABBED BY eldoplaysguitar
666 - Mueve.catchy little synthesied bit
Ive tabbed on guitar.
e-14-14---14-1214---14-14---14-1214------|
B-------9~--------9~------9~--------9~---|
G----------------------------------------|
D----------------------------------------|X2
A----------------------------------------|
E----------------------------------------|

e-1414-1214-1414-1214-1414-1214-1414-1214-|
B-----------------------------------------|
G-----------------------------------------|x2
D-----------------------------------------|
A-----------------------------------------|
E-----------------------------------------|

e-1414-1214-1515-1315-1616-1416-1717-1517-|
B-----------------------------------------|
G-----------------------------------------|
D-----------------------------------------|
A-----------------------------------------|
E-----------------------------------------|

e-1717-1818-1919-2020-212121212121/-------|
B-----------------------------------------|
G-----------------------------------------|
D-----------------------------------------|
A-----------------------------------------|
E-----------------------------------------|

e-14-14---14-1214---14-14---14-1214------|
B-------9~--------9~------9~--------9~---|
G----------------------------------------|
D----------------------------------------|X2
A----------------------------------------|
E----------------------------------------|

e-1414-1214-1414-1214-1414-1214-1414-1214-|
B-----------------------------------------|
G-----------------------------------------|x2
D-----------------------------------------|
A-----------------------------------------|
E-----------------------------------------|

e-1414-1214-1515-1315-1616-1416-1717-1517-|
B-----------------------------------------|
G-----------------------------------------|
D-----------------------------------------|
A-----------------------------------------|
E-----------------------------------------|

e-1717-1818-1919-2020-212121212121/-------|
B-----------------------------------------|
G-----------------------------------------|
D-----------------------------------------|
A-----------------------------------------|
E-----------------------------------------|
Tap to rate this tab
# A B C D E F G H I J K L M N O P Q R S T U V W X Y Z