Song name
# A B C D E F G H I J K L M N O P Q R S T U V W X Y Z

Misc Unsigned Bands - Attica - Vermiform tab

-------------------------------------------------------------------------------
	       	               Vermiform (You're All Whores) - ATTICA
-------------------------------------------------------------------------------


Tabbed by: Eric Vaught and Songqiao Li
Email: the_attica@yahoo.com

Studio Version
Tuning: C# G# C# F# A# D#


Intro (gtr 1 and 2) Feedback (Phase 90 & a killswitch)

D#|-----------------|
A#|-----------------|
F#|-----------------|
C#|--(7)------------|
G#|--(7)------------|
C#|--(7)------------|


Verse 1 (gtr 1 and 2) Distortion

D#|----------------------------------------------------|
A#|----------------------------------------------------|
F#|----------------------------------------------------|
C#|--77777555----------------777775555555555555555555--|
G#|--000000006666666677777777000000003333333366666666--|
C#|----------6666666677777777--------------------------|

D#|----------------------------------------------------------|
A#|----------------------------------------------------------|
F#|----------------------------------5-----------------------|
C#|--77777555----------------777775555-------5---------------|
G#|--000000006666666677777777000000003-------6---10h12-12/13-|
C#|----------6666666677777777--------------------------------|


Break (gtr 1) Clean

D#|--------------------------------------------------------------------|
A#|--------------------------------------------------------------------|
F#|--2----------------------------------------14-12-12-11-11-9-9-------|
C#|--2-----7-7-9-9-11-11-12-12-^14-14-----7-7--------------------11----|
G#|--0-----------------------------------------------------------------|
C#|--------------------------------------------------------------------|
		              prebend a halfstep and release

D#|--------------------------------------------------------------------|
A#|----------------------------------------------------------distortion|
F#|--------------------------------------------------------------------|
C#|--------7-7-9-9-11-11-12-12-^14-14-----------------5----5----xxxx---|
G#|---------------------------------------------------3----6----xxxx---|
C#|-----------------------------------------------8-5-----------xxxx---|
		              prebend a halfstep and release
  

Break (gtr 2) Distorition 

D#|----------------------------------------------|
A#|----------------------------------------------|
F#|----------------------------------------------|
C#|-7--------------------------------------------|
G#|-0--------------------------------------------|
C#|----------------------------------------------|
    random feedback and melodic sliding in G#

Clean

D#|----------------------------------|
A#|-10---11-8-10---11-8--------------|
F#|-9----10-7-9----10-7--5---8-------|
C#|-7----8--5-7----8--5--5---5-------|
G#|-7----8--5-7----8--5--------------|
C#|-7----8--5-7----8--5--------------|


Verse 2 (gtr 1 and 2) Distortion

D#|----------------------------------------------------|
A#|----------------------------------------------------|
F#|----------------------------------------------------|
C#|--77777555----------------777775555555555555555555--|
G#|--000000006666666677777777000000003333333366666666--|
C#|----------6666666677777777--------------------------|

D#|----------------------------------------------------|
A#|----------------------------------------------------|
F#|----------------------------------------------------|
C#|--77777555----------------777775555---------5-------|
G#|--000000006666666677777777000000003---------6-------|
C#|----------6666666677777777--------------------------|


Bridge (gtr 1)

D#|---------------------------------------------------------------------|
A#|---------------------------------------------------------------------|
F#|-------555------------777------------999------------555--------------|
C#|--5----5557-77777777777775-55555555559997-77777777775555-5555555555--|
G#|--5----3337-77777777775555-55555555557777-77777777773335-5555555555--|
C#|--5-------7-7777777777---5-5555555555---7-7777777777---5-5555555555--|

D#|---------------------------------------------------------------------|
A#|-------------------------------------------------------------10-10---|
F#|--555-----------777------------999------------555------------13-13---|
C#|--5557-7777777777775-55555555559993-3-3-3-3-3-5555-5-5-5-6-6---------|
G#|--3337-7777777775555-55555555557773-3-3-3-3-3-3335-5-5-5-6-6---------|
C#|-----7-777777777---5-5555555555---3-3-3-3-3-3----5-5-5-5-6-6---------|


Bridge (gtr 2)

D#|----------------------------------------------------------------------|
A#|----------------------------------------------------------------------|
F#|--------555------------777------------999------------555--------------|
C#|--5-----5557-77777777777775-55555555559997-77777777775555-5555555555--|
G#|--5-----3337-77777777775555-55555555557777-77777777773335-5555555555--|
C#|--5--------7-7777777777---5-5555555555---7-7777777777---5-5555555555--|

D#|------------------------------------------------------------------|
A#|------------------------------------------------------------------|
F#|--555-----------777------------999------------555-----------------|
C#|--5557-7777777777775-55555555559993-3-3-3-3-3-5555-5-5-5-6-6------|
G#|--3337-7777777775555-55555555557773-3-3-3-3-3-3335-5-5-5-6-6------|
C#|-----7-777777777---5-5555555555---3-3-3-3-3-3----5-5-5-5-6-6--66--|


Breakdown (gtr 1 and 2)

D#|-----------------------------------------------------------|
A#|-----------------------------------------------------------|
F#|-----------------------------------------------------------|
C#|--0--------------------------------------------------------|
G#|--0----------------------------0---------------------------|
C#|--0-00-0-00-3p0-3p0-000-12-----0-00-0-00-3p0-3p0-000-10----|

D#|-----------------------------------------------------------|
A#|-----------------------------------------------------------|
F#|-----------------------------------------------------------|
C#|-----------------------------------------------------------|
G#|--0---------------------------0----------------------------|
C#|--0-00-0-00-3p0-3p0-000-9-----0-6-7-10--6-7-6-5-6-5-3-5-3~-|


D#|-----------------------------------------------------------|
A#|-----------------------------------------------------------|
F#|-----------------------------------------------------------|
C#|--0--------------------------------------------------------|
G#|--0----------------------------0---------------------------|
C#|--0-00-0-00-3p0-3p0-000-12-----0-00-0-00-3p0-3p0-000-10----|

D#|-----------------------------------------------------------|
A#|-----------------------------------------------------------|
F#|-----------------------------------------------------------|
C#|-----------------------------------------------------------|
G#|--0---------------------------0----------------------------|
C#|--0-00-0-00-3p0-3p0-000-9-----0-6-7-10--6-7-6-5-6-5-3-5-33-|


D#|------------------------------|
A#|------------------------2-----|
F#|---------2-----------235------|
C#|--0-0-235--00-000-235---------|x3
G#|--0-0------00-000-------------| 
C#|--0-0------00-000-------------|

D#|------------------------------------|
A#|------------------------------------|
F#|---------------14-------------------|
C#|--0-0-14-15-17----00-000--333-------|
G#|--0-0-------------00-000--333-------|
C#|--0-0-------------00-000--333-------|

D#|-----------------------------------------------------------|
A#|-----------------------------------------------------------|
F#|-----------------------------------------------------------|
C#|--0--------------------------------------------------------|
G#|--0----------------------------0---------------------------|
C#|--0-00-0-00-3p0-3p0-000-12-----0-00-0-00-3p0-3p0-000-10----|

D#|-----------------------------------------------------------|
A#|-----------------------------------------------------------|
F#|-----------------------------------------------------------|
C#|-----------------------------------------------------------|
G#|--0---------------------------0----------------------------|
C#|--0-00-0-00-3p0-3p0-000-9-----0-6-7-10--6-7-6-5-6-5-3-5-3~-|

D#|----------------------------------------|
A#|----------------------------------------|
F#|------------------------5---------------|
C#|--0---------12----------5----------5----|
G#|--0---------12----------3----------6----|
C#|--0---------12--------------------------|


Buildup (gtr 1 and 2) Feedback in C# (Big Muff, Phase 90, Boss DD-3, and a dildo)

D#|-----------------------------------------------------------|
A#|-----------------------------------------------------------|
F#|-----------------------------------------------------------|
C#|--0--------------------------------------------------------|
G#|--0------turn-rate-knobs-on-delay-and-phaser-randomly------|
C#|--0--------------------------------------------------------|


Chorus (gtr 1 and 2)

D#|-----------------------------------------------------------|
A#|-----------------------------------------------------------|
F#|-----------------------------------------------------------|
C#|--0-0--------------------5---5-55h6-66-x-3-----------------| x3
G#|--0-0--------------------5---5-55h6-66-x-3-----------------|
C#|--0-0-00-3p0-3p0--3/12---5---5-55h6-66-x-3-----------------|

D#|-----------------------------------------------------------|
A#|-----------------------------------------------------------|
F#|-----------------------------------------------------------|
C#|--0-0--------------------5---------------------------------|
G#|--0-0--------------------5---------------------------------|
C#|--0-0-00-3p0-3p0--3/12---5---------------------------------|


Outro (gtr 1 and 2) Clean

D#|-----------------------------------------------------------|
A#|---6-------------------------------------------------------|
F#|---5-------------------------------------------------------|
C#|---4-------------------------------------------------------|
G#|---5-------------------------------------------------------|
C#|-----------------------------------------------------------|


MYSPACE.COM/THEATTICA


| /  slide up
| \  slide down
| h  hammer-on
| p  pull-off
| ~  vibrato
| +  harmonic
| x  Mute note

===============================================================================
Tap to rate this tab
# A B C D E F G H I J K L M N O P Q R S T U V W X Y Z