Song name
# A B C D E F G H I J K L M N O P Q R S T U V W X Y Z

Misc Unsigned Bands - Demon Spawn - Revelation tab

Demon Spawn - Revelation

Pierce Martin: Lead Guitar/Vocals
Malcolm Dey: Rhythm Guitar/Lyrics
Nick Ramsay: Rhythm Guitar
Danny Collins: Drums

download our song from myspace:

http://www.myspace.com/demonspawn666pnmd

this song is about walking the line between heaven and hell (god and the devil choosing 
ultimate fate)

transcribed by Nick Ramsay.
http://www.myspace.com/ibanez92

tuning: drop b

/ = slide
* = pinch harmonic
# = tremolo picking
~ = vibrato
tr = trill
t = tap

lead guitar = guitar 1 (Pierce Martin)
rhythm guitar1 = guitar 2 (Nick Ramsay)
rhythm guitar2 = guitar 3 (Malcolm Dey)

intro
guitars 1, 2, & 3
|---------------------|
|---------------------|
|---------------------|
|-0----0----0----7----|
|-0----0----0----5----|
|-0----0----0----0----|

guitar 2 - x6
|------------------------------------------------------------------|
|------------------------------------------------------------------|
|------------------------------------------------------------------|
|-5-0-0-8-0-0-7-0-0-10-0-0-7-0-8-0-5-0-0-7-0-0-3-0-0-5-0-0-2-0-3-0-|
|------------------------------------------------------------------|
|------------------------------------------------------------------|

guitars 1 & 3 (after two times of the above riff)
|------------------------------------------------------------------|
|------------------------------------------------------------------|
|------------------------------------------------------------------|
|-0------------------------------------3---------------------------|
|-0------------------------------------1---------------------------|
|-0----------------------------------------------------------------|

|------------------------------------------------------------------|
|------------------------------------------------------------------|
|------------------------------------------------------------------|
|-3------------------------------------2---------------------------|
|-3------------------------------------0---------------------------|
|-3----------------------------------------------------------------|

|------------------------------------------------------------------|
|------------------------------------------------------------------|
|------------------------------------------------------------------|
|-0------------------------------------3---------------------------|
|-0------------------------------------1---------------------------|
|-0----------------------------------------------------------------|

|------------------------------------------------------------------|
|------------------------------------------------------------------|
|------------------------------------------------------------------|
|-3------------------------------------2---------------------------|
|-3------------------------------------2---------------------------|
|-3------------------------------------2---------------------------|

guitar 2 comes in here..
|------------------------------------------------------------------|
|------------------------------------------------------------------|
|------------------------------------------------------------------|
|-0------------------------------------3---------------------------|
|-0------------------------------------1---------------------------|
|-0----------------------------------------------------------------|

|------------------------------------------------------------------|
|------------------------------------------------------------------|
|------------------------------------------------------------------|
|-3------------------------------------2---------------------------|
|-3------------------------------------0---------------------------|
|-3----------------------------------------------------------------|

|------------------------------------------------------------------|
|------------------------------------------------------------------|
|------------------------------------------------------------------|
|-0------------------------------------3---------------------------|
|-0------------------------------------1---------------------------|
|-0----------------------------------------------------------------|

|------------------------------------------------------------------|
|------------------------------------------------------------------|
|------------------------------------------------------------------|
|-3------------------------------------2---------------------------|
|-3------------------------------------2---------------------------|
|-3------------------------------------2---------------------------|

guitar 3
|------------------------------------------------------------------|
|------------------------------------------------------------------|
|------------------------------------------------------------------|
|------------------------------------------------------------------|
|-----------------------------2h3----------------------------------|
|-000-000-000-000-000-000-000-2h3----------------------------------|

|------------------------------------------------------------------|
|------------------------------------------------------------------|
|------------------------------------------------------------------|
|-----------------------------8/7----------------------------------|
|-----------------------------6/5----------------------------------|
|-000-000-000-000-000-000-000--------------------------------------|

guitars 2 & 3
|------------------------------------------------------------------|
|------------------------------------------------------------------|
|------------------------------------------------------------------|
|------------------------------------------------------------------|
|-----------------------------2h3----------------------------------|
|-000-000-000-000-000-000-000-2h3----------------------------------|

|------------------------------------------------------------------|
|------------------------------------------------------------------|
|------------------------------------------------------------------|
|------------------------------------------------------------------|
|------------------------------------------------------------------|
|-000-000-000-000-000-000-000-3*-----------------------------------|

x4
|------------------------------------------------------------------|
|------------------------------------------------------------------|
|------------------------------------------------------------------|
|------------------------------------------------------------------|
|-----------------------------2h3----------------------------------|
|-000-000-000-000-000-000-000-2h3----------------------------------|

|------------------------------------------------------------------|
|------------------------------------------------------------------|
|------------------------------------------------------------------|
|-----------------------------8/7----------------------------------|
|-----------------------------6/5----------------------------------|
|-000-000-000-000-000-000-000--------------------------------------|

solo riff
guitar 2
|-----------------------------------------------------------------|
|-----------------------------------------------------------------|
|-----------------------------------------------------------------|
|-----------------------------------------------------------------|
|-----------------------------------------------------------------|
|-0-0-0-0-0-0-0-0-0-0-0-0-0-0-0-0-8-8-8-8-8-8-8-8-7-7-7-7-7-7-7-7-|

x5
|-----------------------------------------------------------------|
|-----------------------------------------------------------------|
|-----------------------------------------------------------------|
|-----------------------------------------------------------------|
|-----------------------------------------------------------------|
|-0-0-0-0-0-0-0-0-0-0-0-0-0-0-0-0-8-8-8-8-8-8-8-8-7-7-7-7-7-7-7-7-|

guitar 3 at the same time
x5
|-----------------------------------------------------------------|
|-----------------------------------------------------------------|
|-----------------------------------------------------------------|
|-0-0-0-0-0-0-0-0-0-0-0-0-0-0-0-0-8-8-8-8-8-8-8-8-7-7-7-7-7-7-7-7-|
|-----------------------------------------------------------------|
|-----------------------------------------------------------------|

solo
guitar 1
|-----------------------------------------------------------------|
|-----------------------------------------------------------------|
|-------3-5h6p5-6/7-6----------------3-5h6p5-6/7-6----------------|
|-3-5-6------------------------3-5-6------------------------------|
|-----------------------------------------------------------------|
|-----------------------------------------------------------------|

|----------------------------------------------------------------------|
|-15tr16---15tr16---16b-----12tr13---12tr13---13b-----17tr18---18b-18b-|
|----------------------------------------------------------------------|
|----------------------------------------------------------------------|
|----------------------------------------------------------------------|
|----------------------------------------------------------------------|

x20
|-----------------------------------------------------------------|
|-15h17t18--------------------------------------------------------|
|-----------------------------------------------------------------|
|-----------------------------------------------------------------|
|-----------------------------------------------------------------|
|-----------------------------------------------------------------|

|-----------------------------------------------------------------|
|-18b-------------------------------------------------------------|
|-----------------------------------------------------------------|
|-----------------------------------------------------------------|
|-----------------------------------------------------------------|
|-----------------------------------------------------------------|
end of solo

guitars 2 & 3
x2
|------------------------------------------------------------------|
|------------------------------------------------------------------|
|------------------------------------------------------------------|
|------------------------------------------------------------------|
|-----------------------------2h3----------------------------------|
|-000-000-000-000-000-000-000-2h3----------------------------------|

|------------------------------------------------------------------|
|------------------------------------------------------------------|
|------------------------------------------------------------------|
|-----------------------------8/7----------------------------------|
|-----------------------------6/5----------------------------------|
|-000-000-000-000-000-000-000--------------------------------------|

guitar 1
x4
|------------------------------------------------------------------|
|------------------------------------------------------------------|
|------------------------------------------------------------------|
|-5-0-0-8-0-0-7-0-0-10-0-0-7-0-8-0-5-0-0-7-0-0-3-0-0-5-0-0-2-0-3-0-|
|------------------------------------------------------------------|
|------------------------------------------------------------------|

guitar 2
x4
|-----------------------------------------------------------------------------|
|-----------------------------------------------------------------------------|
|-----------------------------------------------------------------------------|
|-17-0-0-20-0-0-19-0-0-22-0-0-19-0-20-0-17-0-0-19-0-0-15-0-0-17-0-0-14-0-15-0-|
|-----------------------------------------------------------------------------|
|-----------------------------------------------------------------------------|

guitar 3 (after two times of the above riff)
|------------------------------------------------------------------|
|------------------------------------------------------------------|
|------------------------------------------------------------------|
|-5-----8-----7-----8-----10---8---5-----7-----3-----5-----2---3---|
|-5-----8-----7-----8-----10---8---5-----7-----3-----5-----2---3---|
|-5-----8-----7-----8-----10---8---5-----7-----3-----5-----2---3---|

guitar 2 keeps going until song is over
|------------------------------------------------------------------|
|------------------------------------------------------------------|
|------------------------------------------------------------------|
|-5-0-0-8-0-0-7-0-0-10-0-0-7-0-8-0-5-0-0-7-0-0-3-0-0-5-0-0-2-0-3-0-|
|------------------------------------------------------------------|
|------------------------------------------------------------------|

guitar 3 (after two times of above riff) x2
|------------------------------------------------------------------|
|------------------------------------------------------------------|
|------------------------------------------------------------------|
|-7--------------------------------3-------------------------------|
|-5--------------------------------1-------------------------------|
|------------------------------------------------------------------|

|------------------------------------------------------------------|
|------------------------------------------------------------------|
|------------------------------------------------------------------|
|------------------------------------------------------------------|
|-3--------------------------5---7---5-----------------------3---2-|
|-3--------------------------5---7---5-----------------------3---2-|

guitar 1 (comes in at the same time as guitar 3)
|------------------------------------------------------------------|
|-15###-18###-13###-14###------------------------------------------|
|------------------------------------------------------------------|
|------------------------------------------------------------------|
|------------------------------------------------------------------|
|------------------------------------------------------------------|

after doing that twice with all three guitars:

guitar 3 (until end)
|------------------------------------------------------------------|
|------------------------------------------------------------------|
|------------------------------------------------------------------|
|-7--------------------------------3-------------------------------|
|-5--------------------------------1-------------------------------|
|-------000-000-000-000-000--------------000-000-000-000-000-------|

|------------------------------------------------------------------|
|------------------------------------------------------------------|
|------------------------------------------------------------------|
|------------------------------------------------------------------|
|-3--------------------------5---7---5-----------------------3---2-|
|-3--------------------------5---7---5-----------------------3---2-|

guitar 1 (until end)
|------------------------------------------------------------------|
|-15~--15-17/18-18b-18br-13~-13/14-14~-14/15-----------------------|
|------------------------------------------------------------------|
|------------------------------------------------------------------|
|------------------------------------------------------------------|
|------------------------------------------------------------------|
Tap to rate this tab
# A B C D E F G H I J K L M N O P Q R S T U V W X Y Z