Song name
# A B C D E F G H I J K L M N O P Q R S T U V W X Y Z

Misc Unsigned Bands - Descending Beneath - Psychos In The Street tab

psycho street theme song
tune-Drop A
Artist-Descending beneath
Album-none
A-E-A-D-F♯-B

(intro/outro-chorus effect)
-----------------------------------------------|
-----------------------------------------------|
12(let ring 7 seconds)-------------------------|
-----------------------------------------------|
-----------------------------------------------|
-----------------------------------------------|

(intro part 2-strum really fast-distorted)
----------------------------------------------|
----------------------------------------------|
--------------------------------4b--3-4-------|
----------------------------4-3----4---3-2b---|
---------------------------2------------------|
--0000000000000000000000000-------------------| x2
pm.........................

(main rift)
---------------------|
---------------------|
---------------------| play till pre-chorus
---------------------|
-5x16-8x16-5x16-3x16-|

(pre-chorus)
7-8-6-7-----------------------------|
------------------------------------|
-----------------------4b--3-4------|
-------------------4-3----4---3-2b--|
------------------2-----------------|
--------0000000000------------------|
      pm..........

(chorus)
-----------------------|
-----------------------|
-----------------------|
-----------------------| (repeat till chorus ends then finish playing after
5---9/8/7-5---14/13/12-| lyrics)
3x8-7/6/5-3x8-12/11/10-|

(main rift-play till next chorus)
(chorus)

(solo)
7h8p7-6-6h7-6----------[7-8-10-8-7-5--|(repeat whats boxed 3 times)
--------------7b----------------------|
-----------------6b-7b----------------|
--------------------------------------|
--------------------------------------|
--------------------------------------|

(solo part 2-technical tapping and style-really fast)
9p7x4h10(do that 5 times)------------------------| (the finger tap parts kinda
-------------------------------------------------| wierd,i would listen to the
-------------------------------------------------| song and try to follow it cuz
-------------------------------------------------| it has a wierd rythem to it)
-------------------------------------------------|
-------------------------18/1--------------------|(slide with pick)

(main rift-till all lyrics end)
(outro)
Tap to rate this tab
 
# A B C D E F G H I J K L M N O P Q R S T U V W X Y Z