Song name
# A B C D E F G H I J K L M N O P Q R S T U V W X Y Z

Misc Unsigned Bands - Adem - These Are Your Friends tab

----------------------------------------------------------------------------
		     These Are Your Friends - Adem
----------------------------------------------------------------------------
Tabbed by: Alex
Email: american_classic5@yahoo.com

Tuning: Standard 

e|-------------------|-------------------|--------------|--------------|
B|---------0-------0-|---------0-------0-|-----9/10\9-2-|-----9/10\9-5-|
G|-----4-----4---4---|-----4-----4---4---|--------------|--------------|
D|---2---2-----2-----|---4---4-----4-----|---2----------|---2----------|
A|-4-----------------|-6-----------------|-0------------|-0------------|
E|-------------------|-------------------|--------------|--------------|

e|-------------------|-------------------|--------------|
B|---------0-------0-|---------0-------0-|-----9/10\9-2-|
G|-----4-----4---4---|-----4-----4---4---|--------------|
D|---2---2-----2-----|---4---4-----4-----|---2----------|
A|-4-----------------|-6-----------------|-0------------|
E|-------------------|-------------------|--------------|



Also, here's the chorus:

E F# A E2 F# A E


E: 022100
F#: 244322
A: 577655
E2: 779997

Tap to rate this tab
# A B C D E F G H I J K L M N O P Q R S T U V W X Y Z