Song name
# A B C D E F G H I J K L M N O P Q R S T U V W X Y Z

Misc Unsigned Bands - One Peace - Broken tab

-------------------------------------------------------------------------------
			     Broken - One Peace
-------------------------------------------------------------------------------

Tuning: Standard
---------------------------------------------|
B|----------4-----4---4-4-4------------------|
G|-------4------4---4------------------------|
D|----4-------4------------------------------|
A|-2-----------------------------------------|
E|-------------------------------------------|


E--------------------------------------------|
B|----------2-----2---2-2-2------------------|
G|-------4------4---4------------------------|
D|----4-------4------------------------------|
A|-2-----------------------------------------|
E|-------------------------------------------|

E--------------------------------------------|
B|----------0-----0---0-0-0------------------|
G|-------2------2---2------------------------|
D|----4-------4------------------------------|
A|-4-----------------------------------------|
E|-------------------------------------------|

E--------------------------------------------|
B|----------0-----0---0-0-0------------------|
G|-------2------2---2------------------------|
D|----2-------2------------------------------|
A|-0-----------------------------------------|
E|-------------------------------------------|

---------------------------------------------|
B|----------4-----4---4-4-4------------------|
G|-------4------4---4------------------------|
D|----4-------4------------------------------|
A|-2-----------------------------------------|
E|-------------------------------------------|


E--------------------------------------------|
B|----------2-----2---2-2-2------------------|
G|-------4------4---4------------------------|
D|----4-------4------------------------------|
A|-2-----------------------------------------|
E|-------------------------------------------|

E--------------------------------------------|
B|----------0-----0---0-0-0------------------|
G|-------2------2---2------------------------|
D|----4-------4------------------------------|
A|-4-----------------------------------------|
E|-------------------------------------------|

E--------------------------------------------|
B|----------2-----2---2-2-2------------------|
G|-------2------2---2------------------------|
D|----2-------2------------------------------|
A|-0-----------------------------------------|
E|-------------------------------------------|
Tap to rate this tab
# A B C D E F G H I J K L M N O P Q R S T U V W X Y Z