Song name
# A B C D E F G H I J K L M N O P Q R S T U V W X Y Z

Misc Unsigned Bands - Dead Electrics - Beware The Girl With A Dirty Grin tab

Beware the Girl With a Dirty Grin

JACKS GUITAR

e-------------------------------------|
b-------------------------------------|
g-------------------------------------|
d-------------------------------------|
a-------55-66-88------66-55-33--------|
e---77-----------55-------------------|


MIKES GUITAR

e-------------------------------------|
b-------------------------------------|
g-------------------------------------|
d----------11-11--10-10-8-8-8-7-8-7---|
a----99-9-----------------------------|
e-------------------------------------|

CHORUS

e--5------5-----5------------------------|
b--5------7-----6------------------------|
g--6------7-----7------------------------|
d--7------7-----7------------------------|
a--7------5-----5------------------------|
e--5------5-----5------------------------|

www.myspace.com/deadelectrics
Tap to rate this tab
# A B C D E F G H I J K L M N O P Q R S T U V W X Y Z