Song name
# A B C D E F G H I J K L M N O P Q R S T U V W X Y Z

Misc Unsigned Bands - The Oblivious Life - Get Out tab

The Oblivious Life - Get Out
By Kyler Riester AKA theOL
Drop D
Intro
< = pick slide up this sting from fret 20 to 5 
e:--------------------------------------| 
B:--------------------------------------|
G:--------------------------------------|      
D:--------------------------------------|
A:--<|----------------------------------| 
D:--<|--000-7-8-000-8-7-000-5-7-000-5-3-| 
 do that 3 times only slide pick once 
only on first time
Chourus
e:--------------------------------------| 
B:--------------------------------------|
G:--------------------------------------|
D:-000-7-8--000-8-7--000-5-7--000-5-3---|
A:-000-7-8--000-8-7--000-5-7--000-5-3---|   x3 
D:-000-7-8--000-8-7--000-5-7--000-5-3---|
Pre Verse
e:--------------------------------------|
B:--------------------------------------|
G:--------------------------------------|
D:--------------------------------------|   x2
A:-000-3-2--000-5-3--000-7-5--000-8-7---|
D:-000-3-2--000-5-3--000-7-5--000-8-7---|
Verse
e:---------------------------------|
B:---------------------------------|
G:---------------------------------|
D:---------------------------------|
A:-000-7-8--000-8-7--000-7-5--000-5|
D:-000-7-8--000-8-7--000-7-5--000-5|
solo
 
e:-787878787575757575735353535352323232323|
B:----------------------------------------|
G:----------------------------------------|
D:----------------------------------------|
A:----------------------------------------|
D:----------------------------------------|


Itnro 
Chorus
Pre Verse
Verse
Chorus
Pre Verse
Verse
Solo
Chorus
Pre Verse
Verse
Chorus
Verse
Outro is intro no pick slide though

Tap to rate this tab
# A B C D E F G H I J K L M N O P Q R S T U V W X Y Z