Song name
# A B C D E F G H I J K L M N O P Q R S T U V W X Y Z

Misc Unsigned Bands - B44 - Unsung Words tab

Unsung Words
by:Ben Brewer (B44)

e-2-x2-x-2-x2-x-2-x2-x-2-x3-x-|
b-3-x0-x-3-x0-x-3-x0-x-3-x3-x-|
g-4-x4-x-2-x2-x-0-x0-x---x2-x-| x1 intro
d---x--x---x--x---x--x-0-x0-x-| x4 verse (3rd times without slaps)
a---x--x---x--x---x--x---x--x-|
E---x--x---x--x---x--x---x--x-|

e--2-2-2-2-2-2-2-2-2-2-2-2-3--0--5p2-|
b---3-3-3---3-3-3---3-3-3---3--3-----|
g---------2-------0----------2--2----| x2 chorus
d-------------------------0----------|
a-2----------------------------------|
E------------------------------------|

outro- Bm D F#7 G

intro x1
verse x2
chorus x1
verse x1
chorus x1
chorus x1 (with electric guitar capo five same tabs)
outro x2
Tap to rate this tab
# A B C D E F G H I J K L M N O P Q R S T U V W X Y Z