Song name
# A B C D E F G H I J K L M N O P Q R S T U V W X Y Z

Misc Unsigned Bands - Another Day Down - Disco tab

This is the second song of Another Day Down's new album I Watch A World.
This os an easy song to play and a good song.

Tuning: Drop D

e|-------------------------------------------------------|
B|--6-7-6-6-6--6-7-6-6-6--6-7-6-6-6--9-7-6-6-6\4---------|
G|-------------------------------------------------------|
D|--3-4-3-3-3--3-4-3-3-3--3-4-3-3-3--6-4-3-3-3\1---------|
A|-------------------------------------------------------|
D|-------------------------------------------------------|


e|-----------------------------13-13-13-13---------------|
B|--6-6-6-6-6-6-6-6-6-6-6-6-6----------------------------|
G|-------------------------------------------------------|  x4
D|-------------------------------------------------------|
A|-------------------------------------------------------|
D|-------------------------------------------------------|

Chorus

e|-------------------------------------------------------|
B|-------------------------------------------------------|
G|-------------------------------------------------------|
D|---1-1-1-1--3-3-3-3--4-4-4-4--3-3-3-3------------------|  x2
A|---1-1-1-1--3-3-3-3--4-4-4-4--3-3-3-3------------------|
D|---1-1-1-1--3-3-3-3--4-4-4-4--3-3-3-3------------------|


e|-------------------------------------------------------|
B|---6-7-6-6-6\4-----------------------------------------|
G|-------------------------------------------------------|
D|---3-4-3-3-3\1-----------------------------------------|
A|-------------------------------------------------------|
D|-------------------------------------------------------|

e|-------------------------------------------------------|
B|---6-7-6-6-6\4-----------------------------------------|
G|-------------------------------------------------------|
D|---3-4-3-3-3\1-----------------------------------------|  x4
A|-------------------------------------------------------|
D|-------------------------------------------------------|

e|-------------------------------------------------------|
B|-------------------------------------------------------|
G|-------------------------------------------------------|
D|---1-1-1-1--3-3-3-3--4-4-4-4--3-3-3-3------------------|  x4
A|---1-1-1-1--3-3-3-3--4-4-4-4--3-3-3-3------------------|
D|---1-1-1-1--3-3-3-3--4-4-4-4--3-3-3-3------------------|

e|-------------------------------------------------------|
B|-------------------------------------------------------|
G|-------------------------------------------------------|
D|---8-8-8-8-8--8-8-8-8-8--8-8-8--8-8-8-8-8--8-----------|
A|---8-8-8-8-8--8-8-8-8-8--8-8-8--8-8-8-8-8--8-----------|
D|---8-8-8-8-8--8-8-8-8-8--8-8-8--8-8-8-8-8--8-----------|

e|-------------------------------------------------------|
B|-------------------------------------------------------|
G|-------------------------------------------------------|
D|---8-8-8--8-8-8--8-8-8-8-8--8-8-8-8-8--8-8-8-8-8-------|
A|---8-8-8--8-8-8--8-8-8-8-8--8-8-8-8-8--8-8-8-8-8-------|
D|---8-8-8--8-8-8--8-8-8-8-8--8-8-8-8-8--8-8-8-8-8-------|

Thats all I have figured out so far.
Please comment.

Tap to rate this tab
# A B C D E F G H I J K L M N O P Q R S T U V W X Y Z