Song name
# A B C D E F G H I J K L M N O P Q R S T U V W X Y Z

Misc Unsigned Bands - Fairview - Psychics Never Win The Lottery tab

I am kevin, guitarist of fairview 
I wrote this song
so this tab is 100% ha

Tuning: Drop D
although im the only guitarist i record 2 guitar parts and put both of them down


Intro
e--------------------------------------------------|
b-------14----------14-----------------------------|
g---11----11--11--11--11--x-2----------------------|
d-12--12----12--12------12-------------------------|
a--------------------------------------------------|
d--------------------------------------------------|

Both Guitars
e--------------------------------------------------|
b--------------------------------------------------|
g--------------------------------------------------|
d-7-x6---6-x6---4-x12---7-x6---6-x6---2-x12--------|x2
a-9------7------5-------9------7------4------------|
d--------------------------------------------------|

Verse 1 and 2
e--------------------------------------------------|
b--------------------------------------------------|
g-----9-----9-----9-----9----777777-6-6-6----------|
d---7--7-7-7-7-7-7-7-7-7-7---000000-0-0-0-x2-------|x4
a--9-9--9-9---9-9---9-9---9--000000-0-0-0----------|
d----------------------------000000-0-0-0----------|
   ........................
Pre-chorus
Guitar 1
e--------------------------------------------------|
b--------------------------------------------------|
g-1-1-11--2-222--1---------------------------------|
d-------------------0000--0000--0000--0000---------|x2
a-2-2-22--4-444--2--0000--0000--0000--0000---------|
d-2-2-22--4-444--2--0000--0000--0000--0000---------|
                    ...   ...   ...   ...
Guitar 1
Figure out strumming yourself
e--------------------------------------------------|
b--------------------------------------------------|
g-13---14---9--------------------------------------|
d---------------0000--0000--0000--0000-------------|
a-11---12---7---0000--0000--0000--0000-------------|
d---------------0000--0000--0000--0000-------------|
                ...   ...   ...   ...
Guitar 2
once again figure out strumming
e--------------------------------------------------|
b--------------------------------------------------|
g-9---11--6----------------------------------------|
d---------------0000--0000--0000--0000-------------|
a-7---9---4-----0000--0000--0000--0000-------------|
d---------------0000--0000--0000--0000-------------|
                ...   ...   ...   ...


2nd time through you hold out the open chords twice 
as long and palm mute them all

Chorus 
the strumming for the chorus is easy when you listen to it
but these are the basic chords you play
Guitar 1          Guitar 2
e----------------|---------------------------------|
b---------10-----|-------10------------------------|
g-14------9------|-6-----9-------------------------|
d-11--0---7---x2-|-7--0--7-------------------------|
a-9---0---7------|-4--0--7-------------------------|
d-----0---7------|-4--0--7-------------------------|

Verse one more time
then pre-chorus
Outro/breakdown
e----------------------------|
b----------------------------|
g----------------------------|
d-000000000--0-0--000--00000-|
a-000000000--0-0--000--00000-|
d-000000000--0-0--000--00000-|


e--------------------------------------------------|
b--------------------------------------------------|
g------------6h7777p6-------------6h7777p6---------|
d-0-0-00000--7-7777-7--0-0-00000--7-7777-7---------|
a-0-0-00000------------0-0-00000-------------------|
d-0-0-00000------------0-0-00000-------------------|


e--------------------------------------------------|
b--------------------------------101010109101010999|
g------------6h7777p6------------------------------|
d-4-4-44444--7-7777-7--2-2-22222-7-7-7-7-7-7-7-7777|x2
a-4-4-44444------------2-2-22222-------------------|
d-4-4-44444------------2-2-22222-------------------|

the third time i just added a harmony played over the same progression
e--------------------------------------------------|
b-----------9h1010101010p9--you get the point------|
g-----------9-9-9-9-9-9--9-------------------------|
d-0-0-00000----------------------------------------|
a-0-0-00000----------------------------------------|
d-0-0-00000----------------------------------------|


ending
e--------------------------------------------------|
b--------------------------------------------------|
g--7--7--7----7--7--7----2--2--2----1--1--1--------|
d--0--0--0----0--0--0------------------------------|
a--0--0--0----0--0--0----4--4--4----2--2--2--------|
d--0--0--0----0--0--0----4--4--4----2--2--2--------|

e--------------------------------------------------|
b-------14----------14--------14/------------------|
g---11----11--11--11--11------11/------------------|
d-12--12----12--12------12----12/------------------|
a--------------------------------------------------|
d--------------------------------------------------|

... palm mute
/ slide down
H: hammer on
P: pull off

Myspace.com/ihaveafairview
Tap to rate this tab
# A B C D E F G H I J K L M N O P Q R S T U V W X Y Z